Snow Patrol - Spitting Games Chords & Tabs

 

Spitting Games Chords & Tabs

Snow Patrol Chords & Tabs

Version: 1 Type: Bass Tab 0 ratings
1 star 2 stars 3 stars 4 stars 5 stars
comments

Spitting Games Bass Tab

Riff 1

G|----------------------------------------------------------------|
D|----------------------------------------------------------------|
A|5-5-5-5-5-5-5-5-------------------------------------------------|
E|----------------0-0-0-0-0-0-0-0-2-2-2-2-2-2-2-2-3-3-3-3-3-3-3-3-|


Riff 2
[ Tab from: http://www.guitartabs.cc/tabs/s/snow_patrol/spitting_games_btab.html ]
G|----------------------------------------------------------------|
D|----------------------------------------------------------------|
A|5-5-5-5-5-5-5-5-3-3-3-3-3-3-3-3-2-2-2-2-2-2-2-2-----------------|
E|------------------------------------------------3-3-3-3-3-3-3-3-|


Riff 3

G|----------------------------------------------------------------|
D|----------------------------------------------------------------|
A|--------------------------------5-5-5-5-5-5-5-5-5-5-5-5-5-5-5-5-|
E|1-1-1-1-1-1-1-1-3-3-3-3-3-3-3-3---------------------------------|


And the order is:

Riff 1  x2
Riff 2  x4
Riff 1  x2
Riff 2  x4
Riff 3  x4
Riff 1  x2
Guitar only but play A|5 at the end of this bit
Riff 2  x2
Riff 3  x4
Riff 1  x4
Comments