Snow Patrol - Run Chords & Tabs

 

Run Chords & Tabs

Snow Patrol Chords & Tabs

Version: 7 Type: Tab 0 ratings
1 star 2 stars 3 stars 4 stars 5 stars
comments

Run Tab

   
-------------------------------------------------------------------------------
			     RUN - Snow Patrol
-------------------------------------------------------------------------------
Tabbed by: Ste Lyons
Email: ste_lyons@hotmail.com

Tuning: Standard

Intro:
Guitar 1:
    Am        Am*   G*
e|-----------------------------------|
B|--1-1-1-1-1-1-1-1-3-3-3-3-3-3-3-3--|
G|--2-2-2-2-2-2-2-2-0-0-0-0-0-0-0-0--|  x4
D|--2-2-2-2-2-3-3-3-0-0-0-0-0-0-0-0--|
A|--0-0-0-0-0-0-0-0-2-2-2-2-2-2-2-2--|
E|------------------3-3-3-3-3-3-3-3--|
              ^ ^ ^
Use your little finger to fret the D string here.

Guitar 2 (riff):
    Am        Am*   G*
e|---------------------------------------|
B|---------------------------------------|
G|----9-9-9-9-7-7-7-7\4-4-4-4-4\2-2-2-2--|  x2
D|---------------------------------------|
A|---------------------------------------|
E|---------------------------------------|


Verse 1:
             Am            Am*     G*
I'll sing it one last time for you
        Am          Am*   G*
Then we really have to go
                Am          Am*       G*
You've been the only thing that's right
           Am     Am*    G*
In all I've done (^riff^)

          Am          Am*    G*
And I can barely look at you
          Am          Am*   G*
But every single time I do
             Am        Am*   G*
I know we'll make it anywhere
         Am      Am*    G*
Away from here (^riff^)


Chorus picking (behind chords):
  C                                    G
e|---------------------------------------------------------------------...
B|------8--------8--------8--------8-------8-------8-------8-------8---...
G|----9---9----9---9----9---9----9---9---7---7---7---7---7---7---7---7-...
D|-10-------10-------10-------10-------9-------9-------9-------9-------...
A|---------------------------------------------------------------------...
E|---------------------------------------------------------------------...

   Am                                     F
...--------------------------------------------8---------8--------8--------8------|
...-----10--------10--------10-------10-----10---10---10---10--10---10--10---10---|
...---9----9----9----9----9---9----9----9-10-------10--------10-------10-------10-|
...10--------10--------10-------10------------------------------------------------|
...-------------------------------------------------------------------------------|
...-------------------------------------------------------------------------------|

Chorus 1:
C        
Light up, light up
           G
As if you have a choice
                    Am
Even if you cannot hear my voice
                           F
I'll be right beside you dear

C
Louder louder
               G
And we'll run for our lives
                       Am
I can hardly speak I understand
                                   F
Why you can't raise your voice to say


Verse chords with riff x 2
[ Tab from: http://www.guitartabs.cc/tabs/s/snow_patrol/run_tab_ver_7.html ]
Verse 2:
            Am            Am*      G*
To think I might not see those eyes
         Am          Am*    G*
Makes it so hard not to cry
          Am            Am*    G*
And as we say our long goodbye
         Am     Am*    G*    
I nearly do  (^riff^)


Chorus 2 (as Chorus 1 plus...):

Slower slower
We don't have time for that
All I want's to find an easy way
To get out of our little heads

Have heart my dear
We're bound to be afraid
Even if it's just for a few days
Making up for all this mess


Solo:
Guitar 1 (x2):
    C                                           G
e|-------------------------------------------------------------------------...
B|-------------------------------------------------------------------------...
G|--10\9--9\7--7/9--9/10--10\9--9\7--7\5--5/10--10\9--9\7--7/9--9/10--10\9-... 
D|-------------------------------------------------------------------------...
A|-------------------------------------------------------------------------...
E|-------------------------------------------------------------------------...

                    Am                                       F 
...------------------------------------------------------------------------...
...------------------------------------------------------------------------...
...-9\7--7\5--5/10--10\9--9\7--7\5--5\4--4\2--2p0--0h2--2/4--4/5--5/7--7\5-...
...------------------------------------------------------------------------...
...------------------------------------------------------------------------...
...------------------------------------------------------------------------...

...-----------------------|
...-----------------------|
...-5/7--7/9--9\7--7\5--5-|
...-----------------------|
...-----------------------|
...-----------------------|


Guitar 2 (comes in after Guitar 1 finishes one solo):

    C                                                     G
e|--13\12--12\10--10/12--12/13--13\12--12\10--10\8--8/13--13\12--12\10-...
B|---------------------------------------------------------------------...
G|---------------------------------------------------------------------...
D|---------------------------------------------------------------------...
A|---------------------------------------------------------------------...
E|---------------------------------------------------------------------...

                                            Am
...-10\12--12/13--13\12--12\10--10\8--8/13--13\12--12\10--10\8--8\7--7\5-...
...----------------------------------------------------------------------...
...----------------------------------------------------------------------...
...----------------------------------------------------------------------...
...----------------------------------------------------------------------...
...----------------------------------------------------------------------...

                                    F
...-5\3--3/5--5/7--7/8--8/10--10\8--8/10--10/12--12\10--10\8--8--|
...--------------------------------------------------------------|
...--------------------------------------------------------------|
...--------------------------------------------------------------|
...--------------------------------------------------------------|
...--------------------------------------------------------------|


Outro (played lightly):

C        
Light up, light up
           G
As if you have a choice
                    Am
Even if you cannot hear my voice
                           F
I'll be right beside you dear.


End on C


| /  slide up
| \  slide down
| h  hammer-on
| p  pull-off
===============================================================================
Comments