Snow Patrol - Run Chords & Tabs

 

Run Chords & Tabs

Snow Patrol Chords & Tabs

Version: 4 Type: Tab 0 ratings
1 star 2 stars 3 stars 4 stars 5 stars
comments

Run Tab

   
7. Run

VERSE

e-------------
b-1--1--0-----
g-2--2--0-----
D-2--3--0-----
A-0--0--x-----
E-------3-----

e---------------------------------
b---------------------------------
g-9-9-9-9-9-7-7-7-7/4-4-4-4/2-2-2-
D---------------------------------
A---------------------------------
E---------------------------------

CHORUS
C G Am F (You can play either normal or power)
e-------------------------------------
b-------------------------------------
g-5----------------------------------
D-5---5----7---3------------------------
A-3---5----7---3------------------------
E-----3----5---1------------------------

SOLO
[ Tab from: http://www.guitartabs.cc/tabs/s/snow_patrol/run_tab_ver_4.html ]
e--------------------------|-
b--------------------------|-
g-10-10-10-9-9-7-7-9-9-----|-
d--------------------------|-
a--------------------------|-
E--------------------------|-

e--------------------------|-
b--------------------------|-
g-10-10-10-9-9-7-7-9-9-5-5-|-
d--------------------------|-
a--------------------------|-
E--------------------------|-

Repeat this bit ^ twice then:

e--------------------------------------------------------------------------|
b--------------------------------------------------------------------------|
g-10-10-10-9-9-7-7-9-9-5-5-4-4-2-2-0-0-2-2-4-4-5-5-5-7-7-5-5-7-7-9-9-7-7-5-5
d--------------------------------------------------------------------------|
a--------------------------------------------------------------------------|
E--------------------------------------------------------------------------|

Now repeat the whole solo twice if your playing along with the album version,
the single version only has one run of the solo.
Comments