Snow Patrol - Run Chords & Tabs

 

Run Chords & Tabs

Snow Patrol Chords & Tabs

Version: 3 Type: Tab 0 ratings
1 star 2 stars 3 stars 4 stars 5 stars
comments

Run Tab

#----------------------------------PLEASE NOTE--------------------------------#
#This file is the author's own work and represents their interpretation of the#
#song. You may only use this file for private study, scholarship, or research.#
#-----------------------------------------------------------------------------#
#-- File created with Instab - http://www.pconline.com/~smcarey/instab.html --#
#-----------------------------------------------------------------------------#

Author/Artist: Snow Patrol (www.snowpatrol.net)
Title: Run
Standard Tuning

I've simplified this tab quite a bit, and there's a little missing off the end
solo just because I kind of got bored of tabbing it.  Hope it's all understandable.

Verse
Guitar 1
|-0---0---0--
|-1---1---3--
|-2---2---0--
|-2---3---0--
|-0-------x--
|---------3--
                                                                    
Guitar 2 (also plays Am a couple of times later on in verse)
|-------------------------------------
|-------------------------------------
|-9-9-9-9/7-7-7-7-7/4-4-4-4-4/2-2-2-2-
|-------------------------------------
|-------------------------------------
|-------------------------------------                       

Chorus
|-0----3----5----1-
|-1----3----5----1-
|-0----0----5----2-
|-2----0----7----3-
|-3----2----7----3-
|------3----5----1-

|------------------------
|-8--------6---5------6--
|------------------------
|------------------------
|------------------------
|------------------------
 Guitar 2 (chorus 2) played more than indicated 

|-----------------------------------------------------------------------------
|-8--8------------------------------------------------------------------------
|-------10-9-9-7-7-9-9-10-10-9-9-7-7-5-5--10-9-9-7-7-9-9-10-10-9-9-7-7-5-5-10-
|-----------------------------------------------------------------------------
|-----------------------------------------------------------------------------
|-----------------------------------------------------------------------------
 Soloy outro thing
[ Tab from: http://www.guitartabs.cc/tabs/s/snow_patrol/run_tab_ver_3.html ]
-----------------------------------------------------------------------------
-----------------------------------------------------------------------------
-10-9-9-7-7-5-5-4-4-2-2-0-0-2-2-2-4/5-5/7-7/9-7\5-7/9-9/10-9\7-7\5-10-10-9-9-
-----------------------------------------------------------------------------
-----------------------------------------------------------------------------
-----------------------------------------------------------------------------

---------------------------------------------------------------
---------------------------------------------------------------
-7-7-9-9-10-10-9-9-7-7-5-5-10-10-9-9-7-7-5-5-10-10-9-9-7-7-5-5-
---------------------------------------------------------------
---------------------------------------------------------------
---------------------------------------------------------------

any questions? andrewbiles@hotmail.com
___________________
Lyrics:

I'll sing it one last time for you
Then we really have to go
You've been the only thing that's right
In all i've done.

And I can barely look at you
But every single time I do
I know we'll make it anywhere
Anywhere from here

Light up, Light up
As if you have a choice 
Even if you cannot hear my voice
I'll be right beside you dear

Louder, louder
And we'll run for our lives
I can hardly speak I understand
Why you can't raise your voice to say

To think I might not see those eyes
It makes it so hard not to cry
And as we say our long goodbyes
I nearly do.

Light up, light up
As if you have a choice
Even if you cannot hear my voice
I'll be right beside you dear

Louder, louder
And we'll run for our lives
I can hardly speak I understand
Why you can't raise your voice to say

Slower, slower
We don't have time for that
All I want is to find an easier way
To get out of our little heads

Have heart my dear
We're bound to be afraid
Even if it's just for a few days
Making up for all this mess.

Light up, light up
As if you have a choice
Even if you cannot hear my voice
I'll be right beside you dear.
Comments