Snow Patrol - Run Chords & Tabs

 

Run Chords & Tabs

Snow Patrol Chords & Tabs

Version: 2 Type: Tab 1 rating
1 star 2 stars 3 stars 4 stars 5 stars
comments

Run Tab

   
                    SNOW PATROLL - RUN
intro

E[----------------------------------------------]
B[----------------------------------------------]
G[---5-5-5-5-----5-5-5----5-----5-5-5-5-5-5-5-5-]
D[---2-2-2-2-----3-3-3----0-----0-0-0-0-0-0-0-0-]
A[---0-0-0-0-----0-0-0----0-----5-5-5-5-5-5-5-5-]
E[------------------------------3-3-3-3-3-3-3-3-]


E[----------------------------------------------]
B[----------------------------------------------]
G[---5-5-5----5-5-5-----5-5-5-5-5-5-5-5---5-----]
D[---2-2-2----3-3-0-----0-0-0-0-0-0-0-0---0-----]
A[---0-0-0----0-0-0-----5-5-5-5-5-5-5-5---5-----]
E[--------------------------3-3-3-3-3-3-3-3---3-]


Verse 

E[----------------------------------------------]
B[----------------------------------------------]
G[---5-5-5-5----5-5----5-5-5-5-5-5-5------------]
D[---2-2-2-2----3-3----0-0-0-0-0-0-0------------]
A[---0-0-0-0----0-0----5-5-5-5-5-5-5------------]
E[---------------------3-3-3-3-3-3-3------------]

[ Tab from: http://www.guitartabs.cc/tabs/s/snow_patrol/run_tab_ver_2.html ]
Riff (played twice during intro and during the verse)
E[----------------------------------------------]
B[----------------------------------------------]
G[---9-9-9-9-7-7-7-7-/-4-4-4-4-/-2-2------------]
D[----------------------------------------------]
A[----------------------------------------------]
E[----------------------------------------------]														

Chorus
               C            g                   am                                             
E[---0-0-0-0-0-0-0-0-0----3-3-3-3-3-3-3-3-3----0-0-0-0-0-0-0-0-]
B[---1-1-1-1-1-1-1-1-1----0-0-0-0-0-0-0-0-0----1-1-1-1-1-1-1-1-]
G[---0-0-0-0-0-0-0-0-0----2-2-2-2-2-2-2-2-2----2-2-2-2-2-2-2-2-]
D[---2-2-2-2-2-2-2-2-2----3-3-3-3-3-3-3-3-3----2-2-2-2-2-2-2-2-]
A[-------------------------------------------------------------]
E[-------------------------------------------------------------]

Solo

E[-------------------------------------------------]
B[---6-6-5-5-3-3-5-5------6-6-5-5-3-3-1-1-3--------]
G[-------------------------------------------------]
D[-------------------------------------------------]
A[-------------------------------------------------]
E--------------------------------------------------]


Comments