Snow Patrol - One Night Is Not Enough Chords & Tabs

 

One Night Is Not Enough Chords & Tabs

Snow Patrol Chords & Tabs

Version: 2 Type: Tab 0 ratings
1 star 2 stars 3 stars 4 stars 5 stars
comments

One Night Is Not Enough Tab

   
Tuning: Standard

Chords:   Am x02210
          F  x03211
          G  320003

-Verse 1-

Gt1

Am        F         Am
Left your door wide open,

Am         F             G
I couldn't help but walk in,

Am       F            Am
It's the last place I should be,

Am      F        G
But I'm dying to see you,

Gt2 Riff
e----------------------------|
b----------------------------|
G----------------------------|
D---5h7-----5h7-----5p0------|
A----------------------------|
E----------------------------| x2

Am      F           Am
Have I held out for something?

Am      F           G
That is never gonna happen,

-Pause-

-Chorus- x2

F        Am          F
It's not me that you love,

         Am          F
It's not me that you love,

         Am          G
It's not me that you love,

-Verse 2-

Am      F         Am
Woke up cold this morning,

Am        F            G
You shied away from my touch,

Am      F             Am
I would never mean to hurt you,

Am      F           G
Cause I love you so much,

-Guitar 2 Riff-
[ Tab from: http://www.guitartabs.cc/tabs/s/snow_patrol/one_night_is_not_enough_tab_ver_2.html ]
Am     F               Am
Was it always only one night,

Am       F           G
That you ever wanted from me?

-Chorus- x2

Gt2 Solo pt1
e----------------------------------------|
b----------------------------------------|
G---7h9-9/12p9-9---16h17-16-12-----------|
D----------------------------------------|
A----------------------------------------|
E----------------------------------------|

Solo pt2
e----------------------------------------|
b----------------------------------------|
G---7h9-9/12p9-9---11h12-12-4------------|
D----------------------------------------|
A----------------------------------------|
E----------------------------------------|

-Solo pt1- x1

Solo pt3
e----------------------------------------|
b-----10--10--10--10--10--10--10--10-----|
G---12--12--12--12--12--12--12--12-------|
D----------------------------------------|
A----------------------------------------|
E----------------------------------------| x1

solo pt1
solo pt3

Solo pt4 (Outro)
e----------------------------------------|
b----------------------------------------|
G---7h9-9/12p9-9---16-12-----------------|
D----------------------------------------|
A----------------------------------------|
E----------------------------------------|


h - hammer-on
p - pull-off
/ - slide
x - mute note

===============================================================================
Comments