Snow Patrol - How To Be Dead Chords & Tabs

 

How To Be Dead Chords & Tabs

Snow Patrol Chords & Tabs

Version: 2 Type: Tab 0 ratings
1 star 2 stars 3 stars 4 stars 5 stars
comments

How To Be Dead Tab

   
-------------------------------------------------------------------------------
			     HOW TO BE DEAD - Snow Patrol
-------------------------------------------------------------------------------
Tabbed by: John Haugen
Email: johnhaugen21@hotmail.com

Tuning: EADGBE (capo on 3)

This is a pretty easy song once you learn how to stretch your fingers to fit the
chords.  Let me know if you think it's wrong.

Guitar 1 - This gets played throughout the entire song
e|---------------------------------------------------------------------------|
B|---------------------------------------------------------------------------|
G|----(2x)------(2x)------(2x)------(2x)-------------------------------------|
D|--4-6-6-4---4-6-6-4---4-6-6-4---4-6-6-4------------------------------------|
A|--2-2-2-2---2-2-2-2---0-0-0-0---4-4-4-4------------------------------------|
E|--0-0-0-0---4-4-4-4-------------2-2-2-2------------------------------------|

[ Tab from: http://www.guitartabs.cc/tabs/s/snow_patrol/how_to_be_dead_tab_ver_2.html ]
Guitar 2 - This gets repeated at selected times during the song, just listen to
the song to figure out when to come in
e|------6-----6-----------------2-----2---------------0-----0----------------|
B|----6-----6-----6(2x)------3-----3-----3-(2x)----0-----0-----0(2x)-------|
G|--8-----8-----8-----------4-----4-----4---------2-----2-----2--------------|
D|---------------------------------------------------------------------------|
A|---------------------------------------------------------------------------|
E|---------------------------------------------------------------------------|

e|------6-----6----------2-----2----------6-----6----------------------------|
B|----6-----6-----6---3-----3-----3----6-----6-----6------------------------|
G|--8-----8-----8----4-----4-----4----8-----8-----8--------------------------|
D|---------------------------------------------------------------------------|
A|---------------------------------------------------------------------------|
E|---------------------------------------------------------------------------|



| /  slide up
| \  slide down
| h  hammer-on
| p  pull-off
| ~  vibrato
| +  harmonic
| x  Mute note
===============================================================================
Comments