Snow Patrol - Grazed Knees Intro Riff Chords & Tabs

 

Grazed Knees Intro Riff Chords & Tabs

Snow Patrol Chords & Tabs

Version: 1 Type: Tab 0 ratings
1 star 2 stars 3 stars 4 stars 5 stars
comments

Grazed Knees Intro Riff Tab

   
##################################################################################
# This file is the author's own work and represents their interpretation of the  #
# song. You may only use this file for private study, scholarship, or research.  #
##################################################################################

Snow Patrol - Grazed Knees (Album - Final Straw)
Tabber : Ray John ( ray_john@ntlworld.com )

Chords used 

F Bb

F  - 1 3 3 2 1 1
Bb - 1 1 3 3 3 1


My first tab. Sounds good if you pick or strum it. I added two other bits at the bottom that are 
played. They sound close but not sure one is exact. Please email me with any corrections or 
comments.

Pick pattern I used ( correspondes to the string , 5 being the A string, 4 the D, 3 the G etc )  
5 4 3 5 2 4 3

F     Bb       F
[ Tab from: http://www.guitartabs.cc/tabs/s/snow_patrol/grazed_knees_intro_riff_tab.html ]
E------------------|------------------|------------------|------------------|
B--1-------1-------|--1-------1-------|--1-------1-------|--1-------1-------|
G------2-------2---|------2-------2---|------2-------2---|------2-------2---|
D----3-------3-----|----3-------3-----|----3-------3-----|----3-------3-----|
A--------3---------|--1-----3---------|--3-----3---------|--3-----3---------|
E--1---------------|------------------|------------------|------------------|

Intro
F Bb F


(Riff1) 
E----0---8-0-------|
B------6-----6-----|
G--------------5---|
D------------------|
A------------------|
E------------------| x2


This bit is the F Bb bit where Ive put the # but couldnt get it to sound right so I just play 
the chords. This is what i think it is anyway . 

#
E---------------------------|
B---------------------------|
G---3p2-2p0-0---------------|
D-------------3-3p0---0-----|
A-------------------3-------|
E---------------------------|

Hope this helps someone . Rock on !!
Comments