Snow Patrol - Chasing Cars Chords & Tabs

 

Chasing Cars Chords & Tabs

Snow Patrol Chords & Tabs

Version: 6 Type: Tab 0 ratings
1 star 2 stars 3 stars 4 stars 5 stars
comments

Chasing Cars Tab

Song: Chasing Cars
Band/Artist: Snow Patrol
Tuning: Standard

This is my first tab but i watched the acoustic version on youtoube and im 
positive its 100% correct.

The intro starts on first guitar:
E:--------------------------------------------------------------------------|
B:--------------------------------------------------------------------------|
G:-----9---9---9---9---9---9---9---9----------------------------------------|
D:---7---7---7---7---7---7---7---7------------------------------------------|
A:--------------------------------------------------------------------------|
E:--------------------------------------------------------------------------|

After the intro the second guitar starts:
E:--------------------------------------------------------------------------|
B:--------------------------------------------------------------------------|
G:--------------------------------------------------------------------------|
D:---7--7--7--7--7--7--7--7--7--7--7--7--7--7--7--7-------------------------|
A:---7--7--7--7--7--7--7--7--7--7--7--7--7--7--7--7-------------------------|
E:---5--5--5--5--5--5--5--5--5--5--5--5--5--5--5--5-------------------------|

E:--------------------------------------------------------------------------|
B:--------------------------------------------------------------------------|
G:--------------------------------------------------------------------------|
D:---6--6--6--6--6--6--6--6--6--6--6--6--6--6--6--6-------------------------|
A:---5--5--5--5--5--5--5--5--5--5--5--5--5--5--5--5-------------------------|
E:---4--4--4--4--4--4--4--4--4--4--4--4--4--4--4--4-------------------------|

E:--------------------------------------------------------------------------|
B:--------------------------------------------------------------------------|
G:---7--7--7--7--7--7--7--7--7--7--7--7--7--7--7--7-------------------------|
D:---7--7--7--7--7--7--7--7--7--7--7--7--7--7--7--7-------------------------|
A:---5--5--5--5--5--5--5--5--5--5--5--5--5--5--5--5-------------------------|
E:--------------------------------------------------------------------------|

E:--------------------------------------------------------------------------|
B:--------------------------------------------------------------------------|
G:--------------------------------------------------------------------------|
D:---7--7--7--7--7--7--7--7--7--7--7--7--7--7--7--7-------------------------|
A:---7--7--7--7--7--7--7--7--7--7--7--7--7--7--7--7-------------------------|
E:---5--5--5--5--5--5--5--5--5--5--5--5--5--5--5--5-------------------------|

Second guitar keeps playing for two counts until the chorus.
The Verse for first guitar goes like this:

E:--------------------------------------------------------------------------|
B:--------------------------------------------------------------------------|
G:-----9---9---9---9---9---9---9---9---9---9---9---9---9---9---9---9---9----|
D:---7---7---7---7---7---7---7---7---6---6---6---6---6---6---6---6---0---0--|
A:--------------------------------------------------------------------------|
E:--------------------------------------------------------------------------|

E:--------------------------------------------------------------------------|
B:--------------------------------------------------------------------------|
G:-----9---9---9---9---9---9---9---9---9---9---9---9---9---9---9------------|
D:---0---0---0---0---0---0---0---0---7---7---7---7---7---7---7--------------|
A:--------------------------------------------------------------------------|
E:--------------------------------------------------------------------------|

Like the second the first guitar plays it twice until the chorus.
The chorus for the first and second guitar is the same but the third guitar does come in:

E:--------------------------------------------------------------------------|
B:-10-10-10-10-10-10-10-10-10-10-10-10-10-10-10-10--9--9--9--9--9--9--9--9--|
G:--9--9--9--9--9--9--9--9--9--9--9--9--9--9--9--9--9--9--9--9--9--9--9--9--|
D:--7--7--7--7--7--7--7--7--7--7--7--7--7--7--7--7--6--6--6--6--6--6--6--6--|
A:--------------------------------------------------------------------------|
E:--------------------------------------------------------------------------|
[ Tab from: http://www.guitartabs.cc/tabs/s/snow_patrol/chasing_cars_tab_ver_6.html ]
E:--------------------------------------------------------------------------|
B:--9--9--9--9--9--9--9--9-10-10-10-10-10-10-10-10-10-10-10-10-10-10-10-10--|
G:--9--9--9--9--9--9--9--9-9--9--9--9--9--9--9--9--9--9--9--9--9--9--9--9---|
D:--6--6--6--6--6--6--6--6-7--7--7--7--7--7--7--7--7--7--7--7--7--7--7--7---|
A:--------------------------------------------------------------------------|
E:--------------------------------------------------------------------------|

After the chorus the third guitar stops. The first and third guitar keep playing the 
thing for the second verse.

Now the second chorus is a little bit different than the first the first guitar plays:

E:---------------------------------------------------------------------------|
B:---------------------------------------------------------------------------|
G:---9--9--9--9--9--9--9--9--9--9--9--9--9--9--9--9--9--9--9--9--9--9--9--9--|
D:---7--7--7--7--7--7--7--7--7--7--7--7--7--7--7--7--6--6--6--6--6--6--6--6--|
A:---0--0--0--0--0--0--0--0--0--0--0--0--0--0--0--0--7--7--7--7--7--7--7--7--|
E:---------------------------------------------------------------------------|

E:--------------------------------------------------------------------------|
B:--------------------------------------------------------------------------|
G:---9--9--9--9--9--9--9--9--9--9--9--9--9--9--9--9--9--9--9--9--9--9--9--9-|
D:---6--6--6--6--6--6--6--6--0--0--0--0--0--0--0--0--0--0--0--0--0--0--0--0-|
A:---7--7--7--7--7--7--7--7--0--0--0--0--0--0--0--0--0--0--0--0--0--0--0--0-|
E:--------------------------------------------------------------------------|

E:--------------------------------------------------------------------------|
B:--------------------------------------------------------------------------|
G:---9--9--9--9--9--9--9--9--9--9--9--9--9--9--9--9-------------------------|
D:---7--7--7--7--7--7--7--7--7--7--7--7--7--7--7--7-------------------------|
A:---0--0--0--0--0--0--0--0--0--0--0--0--0--0--0--0-------------------------|
E:--------------------------------------------------------------------------|

The second and third guitar are the same as the first verse in the second chorus.
The middle part of the song has only the third guitar playing the chorus twice.
After the middle part all three guitars play what they played in the second chorus. The 
difference is that there is gain on the first guitar.

The outro has just the first and second guitar playing.

First Guitar:
E:--------------------------------------------------------------------------|
B:--------------------------------------------------------------------------|
G:-----9---9---9---9---9---9---9---9---9---9---9---9---9---9---9---9---9----|
D:---7---7---7---7---7---7---7---7---6---6---6---6---6---6---6---6---0---0--|
A:--------------------------------------------------------------------------|
E:--------------------------------------------------------------------------|

E:--------------------------------------------------------------------------|
B:--------------------------------------------------------------------------|
G:-----9---9---9---9---9---9---9---9---9---9---9---9---9---9---9------------|
D:---0---0---0---0---0---0---0---0---7---7---7---7---7---7---7--------------|
A:--------------------------------------------------------------------------|
E:--------------------------------------------------------------------------|

Second Guitar:
E:--------------------------------------------------------------------------|
B:--------------------------------------------------------------------------|
G:--------------------------------------------------------------------------|
D:--------------------------------------------------------------------------|
A:--0--0--0--0--0--0--0--0--0--0--0--0--0--0--0--0--7--7--7--7--7--7--7--7--|
E:--------------------------------------------------------------------------|

E:--------------------------------------------------------------------------|
B:--------------------------------------------------------------------------|
G:--------------------------------------------------------------------------|
D:--------------------------------------------------------------------------|
A:--7--7--7--7--7--7--7--7--5--5--5--5--5--5--5--5--5--5--5--5--5--5--5--5--|
E:--------------------------------------------------------------------------|

E:--------------------------------------------------------------------------|
B:--------------------------------------------------------------------------|
G:--------------------------------------------------------------------------|
D:--------------------------------------------------------------------------|
A:--0--0--0--0--0--0--0--0--0--0--0--0--0--0--0--0--------------------------|
E:--------------------------------------------------------------------------|

This is my all time favorite song to play. I hope you enjoy it!
for questions e-mail me at pattman_09@yahoo.com Thanks!
Comments