Snow Patrol - Chasing Cars Chords & Tabs

 

Chasing Cars Chords & Tabs

Snow Patrol Chords & Tabs

Version: 3 Type: Tab 0 ratings
1 star 2 stars 3 stars 4 stars 5 stars
comments

Chasing Cars Tab

   
I made some simple changes to calum's earlier post to add lyrics to the tabs at the approximate timing.

Intro/Verse:
			       We'll do it all	Everything	On our own
			       We don't need	Anything	Or anyone
e|------------------------------------------------------------------|
B|------------------------------------------------------------------|
G|--9-9-9-9-9-9-9-9-9-9-9-9-9-9-9-9-9-9-9-9-9-9-9-9-9-9-9-9-9-9-9-9-|
D|-7-7-7-7-7-7-7-7-7-7-7-7-7-7-7-7-6-6-6-6-6-6-6-6-0-0-0-0-0-0-0-0--|
A|------------------------------------------------------------------|
E|------------------------------------------------------------------|

Pre-Chorus:		     If I lay here….
e|-----------------------------------------------------|
B|-----------------------------------------------------|
G|--9-9-9-9-9-9-9-9-9-9-9-9-9-9-9-9--------------------|
D|-7-7-7-7-7-7-7-7-7-7-7-7-7-7-7-7--7-7-7-7-7-7-7-7-7--|
A|----------------------------------7-7-7-7-7-7-7-7-7--|
E|----------------------------------5-5-5-5-5-5-5-5-5--|

Chorus:		If I just lay here…   Would you lie with me and just 
					        forget the world?    
e|-------------------------------------------------------------------------|
B|-------------------------------------------------------------------------|
G|------------------------------------77777777777777777--------------------|
D|77-7-7-7-7-7-7-7--66666666666666666-77777777777777777-77777777777777777--|
A|77-7-7-7-7-7-7-7--77777777777777777-55555555555555555-77777777777777777--|
E|55-5-5-5-5-5-5-5--44444444444444444-------------------55555555555555555--|

Verse2:
I don't quite know…  How to say…   How I feel 
Those three words … Are said too much…  They're not enough
[ Tab from: http://www.guitartabs.cc/tabs/s/snow_patrol/chasing_cars_tab_ver_3.html ]
Pre Chorus + Chorus x2:
If I lay here…  If I just lay here…  Would you lie with me and just forget the world? 
Forget what we're told…  Before we get too old…  Show me a garden that's bursting into life

Verse3:
Let's waste time…  Chasing cars…  Around our heads 
I need your grace…  To remind me… To find my own			

Pre Chorus + Chorus x3 (w/ alternate Riff 1):
If I lay here…  If I just lay here…  Would you lie with me and just forget the world? 
Forget what we're told…  Before we get too old…  Show me a garden that's bursting into life
I don't know where… Confused about how as well… Just know that these things will never change for us at all
e|----------------------------------------------------------------------------------------|
B|-10-10-10-10-10-10-10-10-10-10-10-10-10-10-10-10-10-10-10-10-10-10-10-10-10-10-10-10-10-|
G|-9--9--9--9--9--9--9--9--9--9--9--9--9--9--9--9--9--9--9--9--9--9--9--9--9--9--9--9--9--|
D|-7--7--7--7--7--7--7--7--7--7--7--7--7--6--6--6--6--6--6--6--6--0--0--0--0--0--0--0--0--|
A|----------------------------------------------------------------------------------------|
E|----------------------------------------------------------------------------------------|

End Of Chorus Riff:
e|---------------------------------------------|
B|---------------------------------------------|
G|---------------------------------------------|
D|--7-7-7-7--9-9-9-9-11-11-11-11-11-11-11-11---|
A|--x-x-x-x--x-x-x-x--x--x--x--x--x--x--x--x---|
E|--5-5-5-5--7-7-7-7--9--9--9--9--9--9--9--9---|

Outro:
If I lay here…  If I just lay here…  Would you lie with me and just forget the world?
e|------------------------------------------------------------------|
B|------------------------------------------------------------------|
G|--9-9-9-9-9-9-9-9-9-9-9-9-9-9-9-9-9-9-9-9-9-9-9-9-9-9-9-9-9-9-9-9-|
D|-7-7-7-7-7-7-7-7-7-7-7-7-7-7-7-7-6-6-6-6-6-6-6-6-0-0-0-0-0-0-0-0--|
A|------------------------------------------------------------------|
E|------------------------------------------------------------------|
Comments