Snow Patrol - Chasing Cars Chords & Tabs

 

Chasing Cars Chords & Tabs

Snow Patrol Chords & Tabs

Version: 2 Type: Tab 0 ratings
1 star 2 stars 3 stars 4 stars 5 stars
comments

Chasing Cars Tab

   
----------------------------------------------------------------------------
			     CHASING CARS - Snow Patrol
----------------------------------------------------------------------------
Tabbed by: gregor
Email: chumpcheese@hotmail.com

Tuning:  standard  
         capo 2nd fret 

[ Tab from: http://www.guitartabs.cc/tabs/s/snow_patrol/chasing_cars_tab_ver_2.html ]
intro/verse
e|--------------------------------------------------------------------||
B|----3-3-3-3-3-3-3-3-3-3-3-3-3-3-3-3-3-3-3-3-3-3-3-3-3-3-3-3-3-3-3-3-||
G|---0-0-0-0-0-0-0-0-0-0-0-0-0-0-0-0----------------------------------||
D|-----------------------------------4-4-4-4-4-4-4-4------------------||
A|---------------------------------------------------3-3-3-3-3-3-3-3--||
E|--------------------------------------------------------------------||
                      We'll do it all,     Everything     On our own
chorus
e|-------------3-----------------------------------------------------------|
B|-------------3-----------------3----------------------------3------------|
G|-------------0-----------------2----------------------------0------------|
D|-------------0-----------------0----------------------------2------------|
A|-------------2-----------------X------------------------3-3-3------------|
E|---------3-3-3-------------2-2-2-----------------------------------------|
  If I lay here       If I just lay here   Would you lie with me and 

e|-------------------------3----------||
B|-------------------------3----------||
G|-------------------------0----------||
D|-------------------------0----------||
A|-------------------------2----------||
E|---------------------3-3-3----------||
   just forget the world



piece o piss

enjoy

| /  slide up
| \  slide down
| h  hammer-on
| p  pull-off
| ~  vibrato
| +  harmonic
| x  Mute note
===============================================================================
Comments