Snow Patrol - An Olive Grove Facing The Sea Acoustic Version Chords & Tabs

 

An Olive Grove Facing The Sea Acoustic Version Chords & Tabs

Snow Patrol Chords & Tabs

Version: 1 Type: Tab 0 ratings
1 star 2 stars 3 stars 4 stars 5 stars
comments

An Olive Grove Facing The Sea Acoustic Version Tab

Artist: Snow Patrol
Album: When it's all over we still have to clear up.
Title: An olive grove facing the sea. (acoustic version)
Tabbed by: Kaleb Sornac 
		(based upon a tab by Pat  Higgins 
		 (by way of cathal woods))
		[You can find his version, well, everywhere... google it if you want it.]

This tab is for the acoustic live recording at SxSW (Radio One),
you can find at: http://www.snow-patrol.co.uk/

This is only for the rhythm guitar, although some stuff fills up pretty well.


Tuning is EADGCC.  Tune the B string up a step and the high E down to it

Chords for verse and intro are:
0--------0----0--0
0--------0----0--0
0--------0----0--0
3--------8---7-5
1--------6---5-3
1--------6---5-3
[ Tab from: http://www.guitartabs.cc/tabs/s/snow_patrol/an_olive_grove_facing_the_sea_acoustic_version_tab.html ]
you can do a pullup on the 5th freth of the high E string
while in the intro, sounds good (and they do it on the acoustic
version)


Then the bit before the chorus is:
0----0----12---1214
0----0----0----0
0----0----0----0
8----10---12---12
6----8----10---10
6----8----10---10


Chorus chords:
0-----0
0-----0
0-----0
10----9
8-----7
8-----7


the chorus finishes on the 8th fret chord and then the bit after the firts one goes:
0--0--0--0--0----0--0
0--0--0--0--0----0--0
0--0--0--0--0----0--0
12108-108---7-5
108-6-8-6---5-3
108-6-8-6---5-3


the bit after the second chorus is:
0--0--0--0--0--0--0--0--0----0--0
0--0--0--0--0--0--0--0--0----0--0
0--0--0--0--0--0--0--0--0----0--0
12108-1012108-108---7-5
108-6-8-108-6-8-6---5-3
108-6-8-108-6-8-6---5-3

so, the structure is:
intro
verse
bit before
chorus
bit after1
verse
bit before
choruse
bit after2

end on:
	0
	0
	0
	3
	3
	1
	0
Comments