Snow Patrol - Absolute Gravity Chords & Tabs

 

Absolute Gravity Chords & Tabs

Snow Patrol Chords & Tabs

Version: 1 Type: Bass Tab 0 ratings
1 star 2 stars 3 stars 4 stars 5 stars
comments

Absolute Gravity Bass Tab

Bass intro:

G-------------------------------------------------|
D-------------------------------------------------|
A--7--7--5---------~-------7--7--5---------~------|
E-----------7--5--3----0------------7--5--3----0--|

G-------------------------------------------------|
D-------------------------------------------------|
A--7--7--5---------~-------7--7--5---------~------|
E-----------7--5--3----0------------7--5--3----0--|

Verse 1:
[ Tab from: http://www.guitartabs.cc/tabs/s/snow_patrol/absolute_gravity_btab.html ]
G-------------------------------------------------|
D-------------------------------------------------|
A--7--7--5-----------------7--7--5---------~------|
E-----------7--5--3----0------------7--5--3----0--|

G-------------------------------------------------|
D-------------------------------------------------|
A--7--7--5----------------7--7--5-----------------|
E-----------7--5--3----0------------7--5--3----0--|

Verse 2:

G-------------------------------------------------|
D-------------------------------------------------|
A--7--7--5-----------------7--7--5---------~------|
E-----------7--5--3----0------------7--5--3----0--|
Comments