Snot - The Box Chords & Tabs

 

The Box Chords & Tabs

Snot Chords & Tabs

Version: 1 Type: Bass Tab 0 ratings
1 star 2 stars 3 stars 4 stars 5 stars
comments

The Box Bass Tab

   
band:snot
song:the box
cd:get some
tabbed by:Trey(SOADsuga99@aol.com)
tunning:D-flat(Db,Ab,Db,Gb)

intro,8x's/&when screaming "the box"
Ab:*-----------------------------3-3-33--*
Db:*-0-3h55--0-3h55--0-3h55-----------*

verse:2x's
Ab:*---------3-------------------3-------------------3-------------------3----*
Db:*-0-3-5----5-3-----0-3-5----5-3-----0-3-5----5-3-----0-3-5----5---0-0-*
[ Tab from: http://www.guitartabs.cc/tabs/s/snot/the_box_btab.html ]
pre-chorus:2x's
Ab:*---------3----------------3--------*
Db:*-0-3-5----5-3-----3-5----5-3-0--*

chorus: not exact # of notes
Ab:---------------------33333--:
Db:-33333-55555----------:

end of 2od chorus
Gb--17------------------:
Db:------17-15----------:
Ab:---------------17-15--:
Db:-------------------------:

bridge
Ab:*-------5-3-------*
Db:*-0-0--------5-3--*

outro:4x's
Ab:*-------------3-3-3-3---*
Db:*-3-3-3-3---------------*

Comments