Snot - Tecato Chords & Tabs

 

Tecato Chords & Tabs

Snot Chords & Tabs

Version: 1 Type: Tab 0 ratings
1 star 2 stars 3 stars 4 stars 5 stars
comments

Tecato Tab

   
Tecato - Snot

-------------

Transcribed By Tim Barr

Drop D and 1/2 Step down (Low To High: Db Ab Db Gb Bb Eb)

Intro
/////

|------------------------------------|
|------------------------------------|
|------------------------------------|
|--0-3-5-0-35-0-35--0-3-5-0-35-0-36--|
|--0-3-5-0-35-0-35--0-3-5-0-35-0-36--|
|--0-3-5-0-35-0-35--0-3-5-0-35-0-36--|

fill in:

|-----------------------------------|--10-10-10-10-10-10--|
|--10-10-10-10-10-10-9-9-9-9-9-9-9--|---------------------|  w/ wah
|-----------------------------------|---------------------|
|-----------------------------------|---------------------|
|-----------------------------------|---------------------|
|-----------------------------------|---------------------|

Verse
/////

|------------------------------------|
|------------------------------------|
|------------------------------------|
|------------------------------------|
|------------------------------------|
|--0-3-5-0-35-0-35--0-3-5-0-35-0-36--|
   <             P.M              >

Chorus
//////

|------------------------------------|
|------------------------------------|
|------------------------------------|
|--0-3-5-0-35-0-35--0-3-5-0-35-0-36--|
|--0-3-5-0-35-0-35--0-3-5-0-35-0-36--|
|--0-3-5-0-35-0-35--0-3-5-0-35-0-36--|
[ Tab from: http://www.guitartabs.cc/tabs/s/snot/tecato_tab.html ]
|---------------------------------------------|
|---------------------------------------------|
|--5-5-5-------5-5-5-------5-5-5--------------|
|--5-5-5-x-x-x-5-5-5-x-x-x-5-5-5-x-x-x-6-6-5--|
|--7-7-7-x-x-x-7-7-7-x-x-x-7-7-7-x-x-x-6-6-5--|
|--------x-x-x-------x-x-x-------x-x-x-6-6-5--|

Bridge
//////

|-----|-------|
|-----|-------|
|-----|--7-7--|
|--0--|--6-6--|
|--0--|--5-5--|
|--0--|-------|

|----------------|
|----------------|
|----------------|
|--0-3-5--0-3-6--|
|--0-3-5--0-3-6--|
|--0-3-5--0-3-6--|

Outro
/////

|------------------------------------|
|------------------------------------|
|------------------------------------|
|--0-3-5-0-35-0-35--0-3-5-0-35-0-36--|
|--0-3-5-0-35-0-35--0-3-5-0-35-0-36--|
|--0-3-5-0-35-0-35--0-3-5-0-35-0-36--|

fill in:

|-----------------------------------|--10-10-10-10-10-10--|
|--10-10-10-10-10-10-9-9-9-9-9-9-9--|---------------------|  w/ wah
|-----------------------------------|---------------------|
|-----------------------------------|---------------------|
|-----------------------------------|---------------------|
|-----------------------------------|---------------------|


|---------------------------------------------|
|---------------------------------------------|
|--5-5-5-------5-5-5-------5-5-5--------------|
|--5-5-5-x-x-x-5-5-5-x-x-x-5-5-5-x-x-x-6-6-5--|
|--7-7-7-x-x-x-7-7-7-x-x-x-7-7-7-x-x-x-6-6-5--|
|--------x-x-x-------x-x-x-------x-x-x-6-6-5--|


end with:

|---------|
|---------|
|---------|
|--6-6-6--|
|--6-6-6--|
|--6-6-6--|

Comments