Snot - My Balls Chords & Tabs

 

My Balls Chords & Tabs

Snot Chords & Tabs

Version: 2 Type: Bass Tab 0 ratings
1 star 2 stars 3 stars 4 stars 5 stars
comments

My Balls Bass Tab

   
band:snot
song:my balls
cd:get some
tabbed by:Trey(SOADsuga99@aol.com)
fixed by Troll (mochunk@musician.org)
tunning:D-flat(Db,Ab,Db,Gb)

intro                                          p p

Gb:--------------------------------------------7-7------------------------:
Db:-----------------------------------------------------------------------:
Ab:-----------------------------------------------------------------------:
Db:-0h3-5--0h3-5--0h3-5--0h3-5--0h3-5--0h3-5---------0h3-5--0h3-5---15/---:

verse:6x's, listen for changes
[ Tab from: http://www.guitartabs.cc/tabs/s/snot/my_balls_btab_ver_2.html ]
Gb:*-----------------------------------*  not quite sure, something like that
Db:*-----------------------------------*  :)
Ab:*-----------------------------------*    --1h3---*
Db:*-0h3-5--0h3-5--0h3-5--0h3-5--7h8-3-* or ------3-* ??

chorus:8x's

Gb:*-----------------*  
Db:*-----------------* 
Ab:*-----------------*
Db:*-0-5-3-3-5-3-7-6-*

interlude/bridge part fills (roughly, make it up as you go for fun)
the fourth time goes into a chorus type riff back into it.

Gb:*-----7-5---------:-------------5-7-*---------------:  
Db:*---------7-5-----:---------5-7-----*---------------: 
Ab:*-------------7-6-:-----6-7---------*---------------:
Db:*-0---------------:-0---------------*-5-3-7-6-5-3-0-:

that about does it, have fun.
Comments