Snot - I Just Lie Chords & Tabs

 

I Just Lie Chords & Tabs

Snot Chords & Tabs

Version: 3 Type: Tab 0 ratings
1 star 2 stars 3 stars 4 stars 5 stars
comments

I Just Lie Tab

   
 Song: I Just Lie
         Band: Snot
        Album: Get Some
    Tabbed by: Brian Mulholland (soad670@hotmail.com)

Tuning: half step down, the drop d (C#,G#,C#,F#,Bb,Eb)
 
  Intro/Chorus

|----------------------------------------------|
|----------------------------------------------|
|----------------------------------------------|
|--2--2-2-2--2-2--2h3p2--2--2-2-2--2-2--5h6p5--|
|--2--2-2-2--2-2--2h3p2--2--2-2-2--2-2--5h6p5--|
|--2--2-2-2--2-2--2h3p2--2--2-2-2--2-2--5h6p5--| 

|----------------------------------------------|
|-11-11-11-11-11--13--10---8-8-8-10------------|
|--x--x--x--x--x---x---x---x-x-x--x------------|
|--8--8--8--8--8--10---7---5-5-5--7------------|
|----------------------------------------------|
|----------------------------------------------| 

  Verse:

|----------------------------------------------|
|----------------------------------------------|
|----------------------------------------------|
|-------------------------------3-2--2-1-------|
|-------------------------------3-2--2-1-------|
|--/-2--2-2-2--2-2--2-2-2--2-2--3-2--2-1-------| 
[ Tab from: http://www.guitartabs.cc/tabs/s/snot/i_just_lie_tab_ver_3.html ]
|--------------------------------|
|--------------------------------|
|--------------------------------|
|--------------------------------|
|--------------------1-----------|
|--2-2--2-2-3-2--2-2---2-2-3-2---| 

  Fill:

|-------------------|
|-------------------|
|-------------------|
|-------------------|
|-------------------|
|--5-2-0-3-2~-------| 

 Breakdown:

|-------------------------------|
|-------------------------------|
|-------------------------------|
|--5-3-0--4-5--0-0--7-8---------|
|--5-3-0--2-3--0-0--5-6---------|
|--5-3-0-------0-0--------------| 

|-------------------------------|
|-------------------------------|
|-------------------------------|
|--5-3-0--5-4--0-0--7-8---------|
|--5-3-0--3-2--0-0--5-6---------|
|--5-3-0-------0-0--------------| 

|---------------------------------------------|
|--12-12-12-12-12-12-12--11-11-11-11-11-11-11-|
|---x--x--x--x--x--x--x---x--x--x--x--x--x--x-|
|---9--9--9--9--9--9--9---8--8--8--8--8--8--8-|
|---------------------------------------------|
|---------------------------------------------|

 IF YOU HAVE ANY QUESTIONS ON THIS TAB OR WANT ANYMORE SNOT TABS,
 JUST E-MAIL ME AT SOAD670@HOTMAIL.COM
Comments