Snot - I Jus Lie Chords & Tabs

 

I Jus Lie Chords & Tabs

Snot Chords & Tabs

Version: 1 Type: Tab 0 ratings
1 star 2 stars 3 stars 4 stars 5 stars
comments

I Jus Lie Tab

   
Band: Snot
Song: I Jus' Lie
Album: Get Some
Tabbed by: Jason Wagner (w1crazymofo@hotmail.com)
Tuning: Drop C# (C# G# C# F# A# D#)

Intro/Chorus
D#|------------------------|------------------------|
A#|------------------------|------------------------|
F#|------------------------|------------------------|
C#|--2--2--2h3--2--2--5h6--|--2--2--2h3--2--2--5h6--|
G#|--2--2--2h3--2--2--5h6--|--2--2--2h3--2--2--5h6--|
C#|--2--2--2h3--2--2--5h6--|--2--2--2h3--2--2--5h6--|

D#|-------------------------------------------------------------------------|
A#|--11-11--11-11--11-11-11-11-11-11-11-13--10-10--10-10--10-10-10-10-------|
F#|-------------------------------------------------------------------8-11--|
C#|--8--8---8--8---8--8--8--8--8--8--8--10--7--7---7--7---7--7--7--7--------|
G#|-------------------------------------------------------------------5-8---|
C#|-------------------------------------------------------------------------|

Fill
D#|-------------------------------------------------|
A#|-------------------------------------------------|
F#|-------------------------------------------------|
C#|--2h3p0--------------------------------3-2--2-1--|
G#|---------------------------------------3-2--2-1--|
C#|---------2-2--2--2-2-2--2--2-2-2--2--2-3-2--2-1--|

Verse
D#|----------------------------------------|--------------------------------------------------|
A#|----------------------------------------|--------------------------------------------------|
F#|----------------------------------------|--------------------------------------------------|
C#|----------------------------------------|--------------------------------------------------|
G#|----------------------1-----------------|----------------------1---------------------------|
C#|--2-2--2--2-3-2--2--2---2--2--2-3-2--2--|--2-2--2--2-3-2--2--2---2--2--2-0-2---0h2-0h2-1~--|

D#|----------------------------------------|--------------------------------------------|
A#|----------------------------------------|--------------------------------------------|
F#|----------------------------------------|--------------------------------------------|
C#|----------------------------------------|--------------------------------------------|
G#|----------------------1-----------------|----------------------1---------------------|
C#|--2-2--2--2-3-2--2--2---2--2--2-3-2--2--|--2-2--2--x-3-2--2--x---2--2--x-0h2-0h2-1~--|
[ Tab from: http://www.guitartabs.cc/tabs/s/snot/i_jus_lie_tab.html ]
D#|----------------------------------------|------------------------------------------------|
A#|----------------------------------------|------------------------------------------------|
F#|----------------------------------------|------------------------------------------------|
C#|----------------------------------------|--------------------------------------3-2--2-1--|
G#|----------------------1-----------------|----------------------1---------------3-2--2-1--|
C#|--2-2--2--2-3-2--2--2---2--2--2-3-2--2--|--2-2--2--2-3-2--2--2---2--2--2-0-2---3-2--2-1--|

D#|----------------------------------------|--------------------------------------------|
A#|----------------------------------------|--------------------------------------------|
F#|----------------------------------------|--------------------------------------------|
C#|----------------------------------------|--------------------------------------------|
G#|----------------------1-----------------|----------------------1---------------------|
C#|--2-2--2--2-3-2--2--2---2--2--2-3-2--2--|--2-2--2--x-3-2--2--x---2--2--x-0h2-0h2-1~--|

Verse 2
D#|----------------------------------------|--------------------------------------------------|
A#|----------------------------------------|--------------------------------------------------|
F#|----------------------------------------|--------------------------------------------------|
C#|----------------------------------------|--------------------------------------------------|
G#|----------------------1-----------------|----------------------1-----------------------5*--|
C#|--2-2--2--2-3-2--2--2---2--2--2-3-2--2--|--2-2--2--2-3-2--2--2---2--2--2-0-2---0h2-0h2-----|

D#|----------------------------------------|--------------------------------------------|
A#|----------------------------------------|--------------------------------------------|
F#|----------------------------------------|--------------------------------------------|
C#|----------------------------------------|--------------------------------------------|
G#|----------------------1-----------------|----------------------1---------------------|
C#|--2-2--2--2-3-2--2--2---2--2--2-3-2--2--|--2-2--2--x-3-2--2--x---2--2--x-0h2-0h2-1~--|

Bridge
(various harmonics then)
D#|--------------|
A#|--------------|
F#|--5-4----7-8--|
C#|--5-4----7-8--|
G#|--3-2----5-6--|
C#|--------------|

D#|----------------------------------------|
A#|----------------------------------------|
F#|---------4-5----7-8---------5-4----7-8--|
C#|--4-3-0--4-5-0--7-8--4-3-0--5-4-0--7-8--|
G#|--4-3-0--2-3-0--5-6--4-3-0--3-2-0--5-6--|
C#|--4-3-0------0-------4-3-0------0-------|

D#|------------------------------------------|
A#|------------------------------------------|
F#|---------4-5----7-8---------5-4--xxxxx-8--|
C#|--4-3-0--4-5-0--7-8--4-3-0--5-4--xxxxx-8--|
G#|--4-3-0--2-3-0--5-6--4-3-0--3-2--xxxxx-6--|
C#|--4-3-0------0-------4-3-0----------------|

Fill
D#|---------------------------------------------------|
A#|--12-12-12-12-12-12-12-12-11-11-11-11-11-11-11-11--|
F#|---------------------------------------------------|
C#|--9^-9--9--9^-9--9--9^-9--8^-8--8--8^-8--8--8^-8---|
G#|---------------------------------------------------|
C#|---------------------------------------------------|
Comments