Snot - I Jus Lie Chords & Tabs

 

I Jus Lie Chords & Tabs

Snot Chords & Tabs

Version: 1 Type: Bass Tab 0 ratings
1 star 2 stars 3 stars 4 stars 5 stars
comments

I Jus Lie Bass Tab

Song: I Jus Lie
Artist: Snot
Album: Snot

Arranged for 4 string in dropped D tuning: Low to high D A D G

Intro/Chorus
g|--------------------------------|---------------|
d|--------------------------------|---------------|
a|--------------------------------|---------------|
d|-1-1-1-1-1-2-1-1-1-1-1-11-3-4-3-|-0-0-0-0-0-0-0-|
[ Tab from: http://www.guitartabs.cc/tabs/s/snot/i_jus_lie_btab.html ]
Pre Verse  Verse                              Pre chorus flare
g|---------|-----------------------------|-------------|
d|---------|-----------------------------|-------------|
a|---------|-----------------1-----------|-------------|
d|-0-1-1-0-|-1-1-1-1-2-1-1-1---1-1-1-1-2-|-1-2-1-2-0---|

Middle
g|---------------------------------|
d|---------------------------------|
a|-------3-1---5-6-------1-3---5-6-|
d|-3-3-0-----0-----3-3-0-----0-----|
Comments