Snot - Get Some Chords & Tabs

 

Get Some Chords & Tabs

Snot Chords & Tabs

Version: 1 Type: Tab 0 ratings
1 star 2 stars 3 stars 4 stars 5 stars
comments

Get Some Tab

   
	Song: Get Some
	Band: Snot
       Album: Get Some
   Tabbed by: Brian Mulholland (soad670@hotmail.com)

Tuning: half step down, then drop d (C#,G#,C#,F#,Bb,Eb)

  Intro/Verse:

|----5--------5-------|----5---------|
|-------7-------7-----|-------7-7-7--|
|--6----5--6------6-5-|--6----5-5-5--|
|---------------------|--------------|
|---------------------|--------------|
|---------------------|--------------| 
[ Tab from: http://www.guitartabs.cc/tabs/s/snot/get_some_tab.html ]
  Fill:
|-----14-17-14----14-17-14----14-17-14----14-17-14--|
|--14----------14----------13----------13-----------|
|---------------------------------------------------|
|---------------------------------------------------|
|---------------------------------------------------|
|---------------------------------------------------| 

  Chorus:

|--------------------------------------------|
|--------------------------------------------|
|--------------------------------------------|
|-------------x-x-3-3-3-3-3-x-x-3-3-3-3-3-4--|
|--9-7--------x-x-3-3-3-3-3-x-x-3-3-3-3-3-4--|
|------9-8-7--x-x-3-3-3-3-3-x-x-3-3-3-3-3-4--| 

  Bridge:

|-------------------------------|
|-------------------------------|
|-------------------------------|
|-----4-5-6-4-4---4-5-4-5-4-----|
|-----4-3-4-4-4---4-3-4-5-4-----|
|-----4-----4-4---4---4-5-4-----| 
p.m.  . . . . .   . . . . .

|-------------------------------|
|-------------------------------|
|-------------------------------|
|-----4-5-6-4-4---4-5-4-5-4-----|
|-----4-3-4-4-4---4-3-4-5-4-----|
|-----4-----4-4---4---4-5-4-----|
  
Comments