Snot - Angels Son Chords & Tabs

 

Angels Son Chords & Tabs

Snot Chords & Tabs

Version: 1 Type: Tab 0 ratings
1 star 2 stars 3 stars 4 stars 5 stars
comments

Angels Son Tab

Angel's Son by Snot with vocals by Lajon of Sevendust

The tabs in here are pretty bad, so I'm sumitting a way freakin better
one.  I know the intro and rhythms are correct, but the lead riffs may 
be a little off.  At least they're better than what was out 
here before.

Tuning is as follows:

C,G,C,F,G#,D (that's a full step down from standard, in drop C, 
meaning drop the low E string in the same manner you would drop to D)

You could play this entire song without a second guitar and it still 
would sound good.  It is best as an acoustic song.  

Intro (guitar 1) no Gtr. 2
---0----0---0---0----0-0-0----0----0---0---0---0-0-0--0---------
---6----6---6---6----6-6-6----6----6---6---6---6-6-6--6---------
--7-7--7-7-7-7-7-7--7-7-7-7--7-7--7-7-7-7-7-7-7-7-7-7-7--------- 
------------------------------------------------------x---------
-5----5---------------------5----5--------------------x---------
----------5---7---8------------------5---7---8--------8---------

(Riff 1a) Played by Gtr 1.
----------------------------------------------------------------
----------------------------------------------------------------
-----7-7-7-7-6--4----5-5-5-5-2--4-5--5-5-5-5-4--2---4-4-4-4-2--1
---------------------------------------------------------------- 
----------------------------------------------------------------
----------------------------------------------------------------
(Riff 1b) Gtr. 2 kicks in here, played over Riff 1a
----00000000000000---0000000000000---000000000000---000000000000
----66666666666666---6666666666666---666666666666---666666666666
----77777777777777---7777777777777---777777777777---777777777777
-2-2--------------2-2-------------2-2------------2-2------------ 
-2-2--------------2-2-------------2-2------------2-2------------ 
the 2 bits are actually a bass guitar, and you don't have to play 
    2
them......
    

(Riff 2a) Gtr. 1 then plays this
-000000000000000000000000000000000000000000000000000000000000000
-666666666666666666666666666666666666666666666666666666666666666
-777777777777777777777777777777777777777777777777777777777777777
-xxxxxxxxxxxxxxxxxxxxxxxxxxxxxxxxxxxxxxxxxxxxxxxxxxxxxxxxxxxxxxx
-555555555555555555555555555555555555555555555555555555555555555 
-xxxxxxxxxxxxxxxxxxxxxxxxxxxxxxxxxxxxxxxxxxxxxxxxxxxxxxxxxxxxxxx 
[ Tab from: http://www.guitartabs.cc/tabs/s/snot/angels_son_tab.html ]
(Riff 2b) Gtr. 2 plays this over over Riff 2b
-000000000000000000000000000000000000000000000000000000000000000
-666666666666666666666666666666666666666666666666666666666666666
-777777777777777777777777777777777777777777777777777777777777777
----------------------------------------------------------------
----------------------------------------------------------------
----------------------------------------------------------------
(Riff 2c) Gtr 1 plays this while Gtr. 2 still plays Rif 2b 
-000000000000000000000000000000000000000000000000000000000000000 
-444444444444444444444444444444444444444444444444444444444444444
-555555555555555555555555555555555555555555555555555555555555555 
-xxxxxxxxxxxxxxxxxxxxxxxxxxxxxxxxxxxxxxxxxxxxxxxxxxxxxxxxxxxxxxx 
-333333333333333333333333333333333333333333333333333333333333333 
-xxxxxxxxxxxxxxxxxxxxxxxxxxxxxxxxxxxxxxxxxxxxxxxxxxxxxxxxxxxxxxx 

(Riff 2b) Gtr. 1 plays this
-000000000000000000000000000000000000000000000000000000000000000 
-666666666666666666666666666666666644444444444444444444444444444
-777777777777777777777777777777777755555555555555555555555555555 
-000000000000000000000000000000000000000000000000000000000000000
---------------------------------------------------------------- 
---------------------------------------------------------------- 

(Riff 3a) Gtr. 2 plays this
---------------------------------------------------------------- 
---------------------------------------------------------------- 
--3/7-7-75/7-7-75/7-7-----------------------------------------
--x/x-x-xx/x-x-xx/x-x-----------------------------------------
--3/5-5-53/5-5-53/3-3-----------------------------------------
---------------------------------------------------------------- 

Outro
Gtr. 1
----0---0---0---0---0-0--0-0-0---------------------------------- 
----6---6---6---6---6-6--6-6-6-6-6-6-6-------------------------- 
---7-7-7-7-7-7-7-7-7-7--7-7-7-7-7-7-7---------------------------
---------------------------------------------------------------- 
--5---5--------------------------------------------------------- 
----------5---7---8---------------------------------------------

Gtr. 2
---------------------------------------------------------------- 
----------------------------------------------------------------
----7-------------------------7----------7----------7----------7
----------------------------------------------------------------
-5---------------------------------------------5----------------
-----------------5----------------6-----------------------------


*****FOR THE HELL OF IT*******
 
Bass riff as guitar

That cool bass effect at the beginning could be played like this.
Make your singer do it.

Guitar 3 with wah
----------------
----------------
-0-0-0-0-0-0-0-0
-5-4-5-6-5-4-5-6
----------------
----------------

Comments