Snot - Absent Chords & Tabs

 

Absent Chords & Tabs

Snot Chords & Tabs

Version: 1 Type: Tab 0 ratings
1 star 2 stars 3 stars 4 stars 5 stars
comments

Absent Tab

Song:Absent
Band:Snot
TuninG:Drop D
tabbed by: Tim Barr

//=wah up  \\=wah down


beginning:
|---------------------------------|
|---------------------------------|
|--7-7-7-7---7--7-7-7----7-7-7----|
|--x-x-x-x---x--x-x-x----x-x-x----|
|--5-5-5-5---5--5-5-5----5-5-5----|
|--0-0-0-0---0--0-0-0----0-0-0----|


|---------------------------------------------------------------------------|
|---------------------------------------------------------------------------|
|---------------------------------------------------------------------------|
|--3-3-3-3/6-6-6-x-10--10-x-x-10-10-10----3-3-3-3/6-6-6--6-6/5-5-5-5-5-5h6p5|
|--3-3-3-3/6-6-6-x-10--10-x-x-10-10-10----3-3-3-3/6-6-6--6-6/5-5-5-5-5-5h6p5|
|--3-3-3-3/6-6-6-x-10--10-x-x-10-10-10----3-3-3-3/6-6-6--6-6/5-5-5-5-5-5h6p5|


|--------------------------|
|--------------------------|
|-5//---7//----3//---------|  right after the 
|-x-----x------x-----------|  riff above
|-3//---5//----1//---------|
|--------------------------|

[ Tab from: http://www.guitartabs.cc/tabs/s/snot/absent_tab.html ]
|------------------------------------------------------|
|------------------------------------------------------|
|--7//\\--------7//\\--------------7//\\-----7//\\-----|
|--x------------x------------------x---------x---------|
|--5//\\--------5//\\--------------5//\\-----5//\\-----|
|--0//\\---x-x--0//\\----x-x-x-x---0//\\-----0//\\-----|


|-8888-8986---8888-91198---------------|
|--------------------------------------|
|--------------------------------------|
|--------------------------------------|
|--------------------------------------|
|--------------------------------------|
wah these up/down/up



when music slows
|--------------------|
|--------------------|
|--------------------|
|--------------------|
|--------------------|
|-0-2-2--2--0--2-2---|
pm........................


|--------------------------|
|--------------------------|
|--------------------------|
|-0--2-2--0---5--------5---|
|-0--2-2--0---3--------3---|
|-0--2-2--0---3--3h4p3-----|
do you wanna bite...

Comments