Snook - Mister Cool Chords & Tabs

 

Mister Cool Chords & Tabs

Snook Chords & Tabs

Version: 1 Type: Tab 0 ratings
1 star 2 stars 3 stars 4 stars 5 stars
comments

Mister Cool Tab

   
#----------------------------------PLEASE NOTE---------------------------------#
#This file is the author's own work and represents their interpretation of the #
#song. You may only use this file for private study, scholarship, or research. #
#------------------------------------------------------------------------------#



Song: Mister Cool


Group: Snook

           
Album: "Vi Vet Inte Vart Vi Ska Men Vi Ska Komma Dit"


* Tabbed By: Oscar Jacobsson [ dutchrubber@hotmail.com ] *




Intro/Verse:


     A                c       B 
[ Tab from: http://www.guitartabs.cc/tabs/s/snook/mister_cool_tab.html ]
e|---------------------------------------------------
B|---------------------------------------------------
G|---------------------------------------------------
D|---7--x-x-x-x-x-x---10-x-x--9---------------------- Repeat x8
A|---7--x-x-x-x-x-x---10-x-x--9----------------------
E|---5--x-x-x-x-x-x---8--x-x--7----------------------




Chorus:

                       c     B     A   

e|---------------------------------------
B|---------------------------------------
G|---------------------------------------
D|---------------------10----9-----7-----    Repeat x4
A|---------------------10----9-----7-----
E|---------------------8-----7-----5-----







________________________________________________________________________________

Any questions or comments, email me on dutchrubber@hotmail.com


Dead Bird PRODUCTIONS www.deadbirdprod.tk - Offical Site - All Rights Reserved 2004
Comments