Snfu - Dont Have The Cow Chords & Tabs

 

Dont Have The Cow Chords & Tabs

Snfu Chords & Tabs

Version: 2 Type: Bass Tab 0 ratings
1 star 2 stars 3 stars 4 stars 5 stars
comments

Dont Have The Cow Bass Tab

Song: Don`t have the cow
Band: SNFU
Album: ...Punk-0-Rama 2
tabbed by: Carlos Pino

    verse                                        x4
G:---------------------------------------------------------------
D:---------------------------------------------------------------
A:--7>--------5>----------------------------------------------
E:--------7>--------2-2-0-2-3-------------------------------

G:---------------------------------------------------------------
D:---------------------------------------------------------------
A:--7>---3>--------5>---------------------------------------
E:--------------3>---------------------------------------------
[ Tab from: http://www.guitartabs.cc/tabs/s/snfu/dont_have_the_cow_btab_ver_2.html ]
     chorus
G:---------------------------------------------------------------
D:---------------------------------------------------------------
A:-7>-----------------------------------------------------------
E:------7>--8>------------------------------------------------

   2nd  verse
G:---------------------------------------------------------------
D:---------------------------------------------------------------
A:--7>--5>-----------7-5-5----------------------------------
E:------------7-7-7>-----------2-2-0-2-3-------------------

G:---------------------------------------------------------------
D:---------------------------------------------------------------
A:--7>--5>--7>-----------------5>--7>--------------------
E:------------------2-0-2-3-5--------------------------------


G:---------------------------------------------------------------
D:---------------------------------------------------------------
A:---------------------------------------------------------------
E:---------------------------------------------------------------





Comments