Sms - Just A Bit Of Chaos Chords & Tabs

 

Just A Bit Of Chaos Chords & Tabs

Sms Chords & Tabs

Version: 1 Type: Tab 0 ratings
1 star 2 stars 3 stars 4 stars 5 stars
comments

Just A Bit Of Chaos Tab

   
“SMS Featuring Rehb - Just a bit of chaos”

Guys, I don't know why but I didn't find this tab around the net,so I did it by
myself but it is PERFECT. You got to use some effects to play it well but it's
very easy. it's e,a,d,g,b,e

The first verse is all PALM MUTE except for the 10-10-8

|-----------------------------------------------|
|-----------------------------------------------|
|-6-6-----+10\9--9-9-----9----------------------|
|-6-6-----+10\9--9-9-----9-7-7-----7\6--6-6-----|
|-4-4-----+-8\7--7-7-----7-7-7-----7\6--6-6-----|
|--------------------------5-5-----5\4--4-4-----|

This little solo is played with a special distortion too:
|---------------------------------|
|---------4-----5----4------------|
|---6-----------------------------|
|-6-----6-----6-----6-------------|
|---------------------------------|
|---------------------------------|

On the final part you let it ring
|---6r---------|
|---6r---------|
|---4r---------|
|--------------|
|--------------|
|--------------|

And then you play it with some metalic effect
|--------------------------|
|--------------------------|
|-4--4-4--4-4h6\0----------|
|--------------------------|
|--------------------------|
|--------------------------|
[ Tab from: http://www.guitartabs.cc/tabs/s/sms/just_a_bit_of_chaos_tab.html ]
The ending goes like this:
|---6--6-4-6---6-4-6-6-4-----6--6-4-6---6-4-6-6-----7h9-7---------|
|---6--6-4-6---6-4-6-6-4-----6--6-4-6---6-4-6-6-----------9-7-6---|
|---4--4-4-4---4-4-4-4-4-----4--4-4-4---4-4-4-4-------------------|
|-----------------------------------------------------------------|
|-----------------------------------------------------------------|
|-----------------------------------------------------------------|

|---6--6-4-6---6-4-6-6-4--4-4-4-4-4-4h0--------------------|
|---6--6-4-6---6-4-6-6-4--4-4-4-4-4-4h0--------------------|
|---4--4-4-4---4-4-4-4-4--4-4-4-4-4-4h0--------------------|
|----------------------------------------------------------|
|----------------------------------------------------------|
|----------------------------------------------------------|
“Should I stay or should I go”

That's it, no one ever typed this song I decided to finally do it,
sorry about my english mistakes I'm brazilian

Bye (blinkshow@ig.com.br)
 


Lyrics:
JUST A BIT OF CHAOS 

Hey rockers 
I wanna see all the club jumpin´ up, sit down 
so let me see just a bit of chaos, just a bit of chaos 

If you wanna come in 
If you wanna show 
If you wanna play 
Should I stay or should I go 
Get the party started 
Let the music flow 
If you wanna play 
Should I stay or should I go 

Hey rockers 
I wanna see all the club jumpin´ up, sit down
so let me see just a bit of chaos, just a bit of chaos 

If you wanna come in 
If you wanna show 
If you wanna play 
Should I stay or should I go 
Get the party started 
Let the music flow 
If you wanna play 
Should I stay or should I go
Comments