Smooth Friction - Solid Ug Lawas Chords & Tabs

 

Solid Ug Lawas Chords & Tabs

Smooth Friction Chords & Tabs

Version: 2 Type: Tab

Solid Ug Lawas Tab

   
SOLID ug LAwas

intro
D-------------------------------------|
A-------------8-----------------------|
D--7-10-9-10-----10-9-10--0--10-9-10--| 2X
G-------------------------------------|
B-------------------------------------|
E-------------------------------------|

D--------------------------------------|
A-------------8------------------------|
D--7----------------------0------------|2X
G-----10-9-10----10-9-10-----10-9-10---|
B--------------------------------------|
E--------------------------------------|
[ Tab from: http://www.guitartabs.cc/tabs/s/smooth_friction/solid_ug_lawas_tab_ver_2.html ]
DROP-D
    1st stanza
   nanoktok ko sa inyoha perting dakoa  ang.........
D---77---------33---------00-------------00000------|
A---77---------33---------00-------------00000------|
D---77---------33---------00-------------00000------|
G---------------------------------------------------|
B---------------------------------------------------|
E---------------------------------------------------|
        GUITAR:2
D---7777--333-------------333--xxx--333-----------|
A---7777--333-3(slide)5---333--333--333--2-3-2-3--|
D---7777--333-------------333--555--333-----------|2x
G-------------------------------------------------|
B-------------------------------------------------|
E-------------------------------------------------|

 oohhhhhhhh   gibuhat na nako ang tanan
D---------------333----~~~~~~~~~~~~~~~~~--|
A--3333--2222---333----~~~~~~~~~~~~~~~~~~-|
D----------------------~~~~~~~~~~~~~~~~~~-|
B----------------------~~~~~~~~~~~~-------|
E----------------------~~~~~~~~~~~~~~~~~--|
ooohhhhhhhh kay didto ra dyud ka sa inyong boy nga
D---------------333--------------------------444-|
A--3333--2222---333--------------------------444-|
D--5555--5555---333--------------------------444-|
G------------------------------------------------|
B------------------------------------------------|
E------------------------------------------------|

yan lang po heheh kung dipo tama sabihin new lang.....
weeeeeeeeeeeeeeeeeeeeeeeeeeeeeeeeeeeeeeee