Smoking Popes - Megan Chords & Tabs

 

Megan Chords & Tabs

Smoking Popes Chords & Tabs

Version: 1 Type: Tab 0 ratings
1 star 2 stars 3 stars 4 stars 5 stars
comments

Megan Tab

   
1st guitar(distortion)          2nd guitar(clean)
e|-------------------------------|------------------|
B|-------------------------------|---11/9-----------|
G|-----11---11---8---------------|----------11------|
D|-----11---11---8---8--6-----9--|------------------|
A|-----9----8----6---8----9---9--|------------------|
E|----------------------------7--|------------------|



 
 Only 1st guitar repeating the intro.


 Both guitars

D#m             C#               B
   I heard that whistle call my n...


D#m
    I ...



1st guitar:

          F#m   Bb 
But Megan I

       C#               D#m              G#m
Had a feeling that you would be on that train

          B                C#
So I just waited there for you



2nd guitar:


e|---6--7-6---------------4--5-4------------4-----4---4---4---2---2---2---|
B|---7------7----6--6-----5------5---4---4--4---4---4---4---4---2----2----|
G|---6---------6---6--6---4--------4---4----------------------------------|
D|------------------------------------------------------------------------|
A|------------------------------------------------------------------------|
E|------------------------------------------------------------------------|


e|------4-----4---6---|
B|----6-----6-----7---|
G|--6-----6-------6---|
D|--------------------|
A|--------------------|
E|--------------------|




Legend:

~~ tremolo

^^ bend up one step(full bend)

h  hammer on

p  pull off

     D#m                           B      

e|---11-----11-----------------------14-13-11------------------------------|
B|---14^^------14-----------------------------14-12-11-12-11---------------|
G|-----------------13h15p13----------------------------------13-11-13h15p13|
D|--------------------------13-13~~----------------------------------------|
A|-------------------------------------------------------------------------|
E|-------------------------------------------------------------------------|
[ Tab from: http://www.guitartabs.cc/tabs/s/smoking_popes/megan_tab.html ]
                F#          C#     C#m               D#m        

e|-------------16^^--16-14-16~~----19-18-16----16-15-15~~------------------|
B|------------------------------------------19-----------------------------|
G|-------------------------------------------------------------------------|
D|--13-13~~----------------------------------------------------------------|
A|-------------------------------------------------------------------------|
E|-------------------------------------------------------------------------|


              G#m                                    B         C#

e|---11-9-9-------9-11-9---------------------------------------9^^---------|
B|----------11-12--------12-11-9~~--------7-----------------7--------------|
G|------------------------------------6/8---6-4-6---4-6/8-6----------------|
D|------------------------------------------------6------------------------|
A|-------------------------------------------------------------------------|
E|-------------------------------------------------------------------------|


e|---9h11p9---------------------------|
B|----------9h11p9---------9-7~~------|
G|-----------------8h10p8-------------|
D|------------------------------------|
A|------------------------------------|
E|------------------------------------|



 
2nd guitar:


e|---6--7-6----------------4--5-4------------4-----4---4---4---2---2---2--|
B|---7------7----6--6------5------5---4---4--4---4---4---4---4--2---2-----|
G|---6---------6---6--6----4--------4---4---------------------------------|
D|------------------------------------------------------------------------|
A|------------------------------------------------------------------------|
E|------------------------------------------------------------------------|


e|--4---|
B|--6---|
G|--6---|
D|------|
A|------|
E|------|


             
"Butter on a summer day when she's around"


                    end on F#

e|--------------------2---|
B|--------------------2---|
G|-----11---11---8----3---|
D|-----11---11---8----4---|
A|-----9----8----6----4---|
E|--------------------2---|

Comments