Smokey Robinson - My Girl Chords & Tabs

 

My Girl Chords & Tabs

Smokey Robinson Chords & Tabs

Version: 1 Type: Tab 0 ratings
1 star 2 stars 3 stars 4 stars 5 stars
comments

My Girl Tab

-------------------------------------------------------------------------------
			     My girl - The temptations
-------------------------------------------------------------------------------
Tabbed by:
Email:

Tuning: standard
   intro
e|-----------------------------------------------------------------------------------|
B|---------3--5-----------3-3--5-----------------------------------------------------|
G|-3---5---------3-3-5-5-------------------------------------------------------------|
D|-----------------------------------------------------------------------------------|
A|-----------------------------------------------------------------------------------|
E|-----------------------------------------------------------------------------------|
   rhy. fig 1                                          Rhy. fig. 2
e|----------------------------------------------------------------0-------------------|
B|--------------------------------------------------------------1---------------------|
G|-------------0--3--------------0-3-------------0-3--------0-3-----------------------|
D|-------0--3---------------0-3-------------0-3---------2-4---------------------------|
A|-1--3---------------1--3------------1--3--------------------------------------------|
E|------------------------------------------------------------------------------------|

e|----------------------------------0---------------------------0------------------------|
B|-------------------------------1----------------------------1--------------------------|
G|------------0--3---------0--3-----------------0-3-------0-3--------------0-3-----------|
D|-------0--3--------2--4--------------------0-3------2-4--------------0-3---------------|
A|--1-3----------------------------------1-3-----------------------1-3-------------------|
E|---------------------------------------------------------------------------------------|

e|-----------0-------------------------0---------------------------------------------|
B|---------1-------------------------1-----------------------------------------------|
G|-----0-3-------------0-3-------0-3-------------------------------------------------|
D|-2-4--------------0-3-----2-4------------------------------------------------------|
A|--------------1-3------------------------------------------------------------------|
E|-----------------------------------------------------------------------------------|

e|----------------------------------------|
B|----------------------------------------|
G|--3-3-3-3-3-3-3-3-3-3-3-3-3-3-33--3333--|
D|----------------------------------------|
A|----------------------------------------|
E|----------------------------------------|

e|--------------------------0----------------------------0-------------------------------|
B|------------------------1----------------------------1---------------------------------|
G|----------0-3-------0-3----------------0-3-------0-3---------------0-3-----------------|
D|------0-3-------2-4----------------0-3-------2-4---------------0-3---------------------|
A|--1-3--------------------------1-3-------------------------1-3-------------------------|
E|---------------------------------------------------------------------------------------|
[ Tab from: http://www.guitartabs.cc/tabs/s/smokey_robinson/my_girl_tab.html ]
e|------------0----------------------------0------------------------------|
B|----------1----------------------------1--------------------------------|
G|------0-3---------------0-3--------0-3-------3-3-3-3--3-3-3-3--3-3-3-3--|
D|--2-4---------------0-3--------2-4--------------------------------------|
A|----------------1-3-----------------------------------------------------|
E|------------------------------------------------------------------------|

e|---------------------------------------------------------------0------------|
B|-------------------------------------------------------------1--------------|
G|-3-3-3-3--3--3--3--3--3--3-33--3333-------------0-3------0-3----------------|
D|--------------------------------------------0-3------2-4--------------------|
A|----------------------------------------1-3---------------------------------|
E|----------------------------------------------------------------------------|

e|--------------------------0----------------------------0---------------------|
B|------------------------1----------------------------1-----------------------|
G|----------0-3-------0-3---------------0-3--------0-3---------------0-3-------|
D|------0-3-------2-4---------------0-3--------2-4---------------0-3-----------|
A|--1-3-------------------------1-3--------------------------1-3---------------|
E|-----------------------------------------------------------------------------|

e|-------------0----------------------------------------------------------------|
B|-----------1------------------------------------------------------------------|
G|-------0-3-------3-3-33-3--3-3--33-3--3-3-3333--------------------------------|
D|---2-4------------------------------------------------------------------------|
A|------------------------------------------------------------------------------|
E|------------------------------------------------------------------------------|

e|------------0--------------------------0---------------------------0-------------------|
B|----------1--------------------------1---------------------------1---------------------|
G|------0-3-----------------2-------0-3----------------2-------0-3-----------------------|
D|--2-4-----------------2-4-----2-4----------------2-4-----2-4---------------------------|
A|-----------------0-2-4---------------------0-2-4---------------------------------------|
E|---------------------------------------------------------------------------------------|

e|---------------------------0--------------------------------------------|
B|-------------------------1----------------------------------------------|
G|-------------2-------0-3------------------2---3--3--3--3----3--3--3--3--|
D|---------2-4-----2-4------------------2-4-------------------------------|
A|---0-2-4------------------------0-2-4-----------------------------------|
E|------------------------------------------------------------------------|

e|----------------------------------------------------------|
B|----------------------------------------------------------|
G|--3--3--3--3---3--3--3--3---3--3--3--3--3--3--3--3--3--3--|
D|----------------------------------------------------------|
A|----------------------------------------------------------|
E|----------------------------------------------------------|

e|------------------------------------------------------------------------------|
B|------------------------------------------------------------------------------|
G|--3---------------------------------------------------------------------------|
D|------------------------------------------------------------------------------|
A|------------------------------------------------------------------------------|
E|------------------------------------------------------------------------------|

| ===============================================================================
Comments