Smokescream - Blunt Scissors Chords & Tabs

 

Blunt Scissors Chords & Tabs

Smokescream Chords & Tabs

Version: 1 Type: Tab 0 ratings
1 star 2 stars 3 stars 4 stars 5 stars
comments

Blunt Scissors Tab

Artist: Smokescream                                                              u = bend up
Song: Blunt Scissors


Intro
---------------------------------------------------------------------------------------------
---------------------------------------------------------------------------------------------
--------------------------------------------------------------------------- 7-7-7-7-5-7-5-4-4
--------------------------------------------------------------------------- 7-7-7-7-5-7-5-4-4
0-0-2-0-3-2-0-7-7-5-0-3-3-2-2-0-0-2-0-3-2-0-7-7-5-6-7-3-0-5-5-5-5-3-5-3-2-2-5-5-5-5-3-5-3-2-2

---------------------------------------------------------------------------
---------------------------------------------------------------------------
3-3-2-2-2-2-7-7-7-7-5-7-5-4-4-3-3-2-2-2-2-7-7-7-7-5-7-5-9-9-9-9-8-8-8-8-7-7
3-3-2-2-2-2-7-7-7-7-5-7-5-4-4-3-3-2-2-2-2-7-7-7-7-5-7-5-9-9-9-9-8-8-8-8-7-7
1-1-0-0-0-0-5-5-5-5-3-5-3-2-2-1-1-0-0-0-0-5-5-5-5-3-5-3-7-7-7-7-8-8-8-8-5-5

----------------------------------------------------------------------------------------------
----------------------------------------------------------------------------------------------
7-7-5-7-5-4-4-3-3-2-2-2-2---------------------------------------------------------------------
7-7-5-7-5-4-4-3-3-2-2-2-2---------------------------------------------------------------------
5-5-3-5-3-2-2-1-1-0-0-0-0---------------------------------------------------------------------

Verse
----------------------------------------------------------------------
----------------------------------------------------------------------
-------------------------------------------3-5------------------------
0-0-4u--------------3-4-5-0-0-4u---5-3-4-5-----0-0-4u---------5u-3-7-7
--------3-5-5-5-3-5--------------3--------------------3-4-5-5---------

--------------------------------------------------------------------------------------------
--------------------------------------------------------------------------------------------
--------------------------------------------------------------------------------------------
7-0-0-4-0-5-3-3-3-0-0-----5u-3--------------------------------------------------------------
-------------------------------5-3-5-5-5-5---------------------------------------------
[ Tab from: http://www.guitartabs.cc/tabs/s/smokescream/blunt_scissors_tab.html ]
Chorus
---------------------------------------------------------------------------
------------------------------------------------9-9-7-9-5------------------
7-7-5-7-5-5-7-5-9-9-7-9-3-3-2-2-7-7-5-7-9-9-7-9-9-9-7-9-5-3-2-2-7-7-5-7-5-5
7-7-5-7-5-5-7-5-9-9-7-9-3-3-2-2-7-7-5-7-9-9-7-9-7-7-5-7-3-3-2-2-7-7-5-7-5-5                                                                             
5-5-3-5-3-3-5-3-7-7-5-7-1-1-0-0-5-5-3-5-7-7-5-7-----------1-1-0-0-5-5-3-5-3

---------------------------------------------------------------------------
--------------------------------------9-9-7-9------------------------------
5-7-5-9-9-7-9-3-3-2-2-7-7-5-7-9-9-7-9-9-9-7-9-2-2-2-2----------------------
5-7-5-9-9-7-9-3-3-2-2-7-7-5-7-9-9-7-9-7-7-5-7-2-2-2-2----------------------
3-5-3-7-7-5-7-1-1-0-0-5-5-3-5-7-7-5-7---------0-0-0-0-0--------------------


Intro to verse
---------------------------------------------------------------------------------
----------------------------------------------------------2----------------------
-----------------------------------------------------2-3---3-2-3----3-2----------
---------3-5-5-3----------------------------3-2-3--------------2-3-----7-5-------
3-3-55-----------5-3-5-3-5-0-7-5-0-2-3----------------------------------7-6-5-0-0

Riff
------------------------------------------------------------------------------------------
------------------------------------------------------------------------------------------
------------------------------------------------------------------------------------------
-------------------------------------3----------------------------------------------------
0-0-3-0-0-0-5-5-0-0-3-0-0-0-5---0-0-3-0-0-0-5-3-0-0-0-3-0-0-0-5-0-------------------------

Ending
-------------------------------------------------------------------------
-------------------------------------------------------------------------
7-7-9-7-5-5-7-5-9-9-9-9-2-2-2-2-7-7-9-7-5-5-7-5-9-9-9-9-9-9-2-2-7-7-9-8-9
7-7-9-7-5-5-7-5-9-9-9-9-2-2-2-2-7-7-9-7-5-5-7-5-9-9-9-9-9-9-2-2-7-7-9-8-9
5-5-7-5-3-3-5-3-7-7-7-7-0-0-0-0-5-5-7-5-3-3-5-3-7-7-7-7-7-7-0-0-5-5-7-8-9

-------------------------------------------------------------------------------------
-------------------------------------------------------------------------------------
9-9-9-7-7-9-7-2-2-2-2----------------------------------------------------------------
9-9-9-7-7-9-7-2-2-2-2----------------------------------------------------------------
9-9-7-5-5-7-5-0-0-0-0----------------------------------------------------------------





Comments