Smiths - Still Ill Chords & Tabs

 

Still Ill Chords & Tabs

Smiths Chords & Tabs

Version: 1 Type: Bass Tab

Still Ill Bass Tab

Still ill

Verse
G |--------------------------------|--------------------------------|
D |---------6-----------4---4-6----|-----4---4-2--------------------| 
A |-4---4/7---7---0---------------2|--------------------------------|
E |--------------------------------|---------------5-----4-----2----| 3x

G |--------------------------------|--------------------------------|
D |---------6-----------4---4-6*---|-----4---4-2--------------------|
A |-4---4/7---7---0---------------2|---------------------------2-4-2|
E |--------------------------------|---------------5-----4----------|
[ Tab from: http://www.guitartabs.cc/tabs/s/smiths/still_ill_btab.html ]
Bridge
G |--------------------------------|--------------------------------|
D |-------------4---2-----1--------|--------------------------------|
A |-4-6-----------------------4-2--|-0-0-0---0-0---0-2-2---2---2-4-2|
E |-----4-----4--------------------|--------------------------------|

G |--------------------------------|--------------------------------|
D |-------------4---2-----1--------|--------------------------------|
A |-4-6-----------------------4-2--|-0-0-0---0-0---0-2-2---2---2----|
E |-----4-----4--------------------|--------------------------------|

Chorus
G |--------------------------------|--------------------------------|
D |-2---2---2----------------------|--------------------------------|
A |-----------2-4-0---0---0-------2|---2--(2)------2---2--(2)--2-4-2|
E |---------------------------2-4--|-----------2-4------------------|