Smiths - Bigmouth Strikes Again Chords & Tabs

 

Bigmouth Strikes Again Chords & Tabs

Smiths Chords & Tabs

Version: 1 Type: Tab 0 ratings
1 star 2 stars 3 stars 4 stars 5 stars
comments

Bigmouth Strikes Again Tab

   
Tabbed by:CMM
Email:colin_michael_muppet@hotmail.com

Tuning:Standard 

(Chord Progression) (Capo on 4th)
e|--0------0------3------5------0------0------0------1------0------0----|
B|--1------1------1------3------3------1------1------1------1------3----|
G|--2------0------0------0------0------2------0------2------2------4----|
D|--2------2------2------4------4------2------2------3------3------5----|
A|--0------0------3------5------5------0------0------0------0------0----|
E|----------------------------------------------------------------------|
   C#m   C#m7   EaddB   F#add11       C#m    C#m7  A/C#  Amaj7/C#  B6/C#

[ Tab from: http://www.guitartabs.cc/tabs/s/smiths/bigmouth_strikes_again_tab.html ]
(2nd Guitar)(No capo)
e|-------------------------------------------------------------------------|
B|--9--7-------------------9--7----------------9--7-----------7------------|
G|--------9--8--x--9---9---------9--8--x--9----------9--8--x-----9----9-9-9|
D|-------------------------------------------------------------------------|
A|-------------------------------------------------------------------------|
E|-------------------------------------------------------------------------|

e|-----------7-----|
B|--------------9--|
G|-8-8--8-8--------|
D|-----------------|
A|-----------------|
E|-----------------|

(Little Fill)
e|------------|
B|--12\9-9~---|
G|------------|
D|------------|
A|------------|
E|------------|

(Interlude Chords) (Capo on 4th)
e|--0------3--------5-----|
B|--0------3--------5-----|
G|--0---------------------|
D|------------------------|
A|------------------------|
E|------------------------|
   G#m     B5       C#5


| /  slide up
| \  slide down
| h  hammer-on
| p  pull-off
| ~  vibrato
| +  harmonic
| x  Mute note
Comments