Smiths - Barbarism Begins At Home Chords & Tabs

 

Barbarism Begins At Home Chords & Tabs

Smiths Chords & Tabs

Version: 1 Type: Bass Tab 0 ratings
1 star 2 stars 3 stars 4 stars 5 stars
comments

Barbarism Begins At Home Bass Tab

From: f92-abe@byse.nada.kth.se (Anders Berggren)
Subject: Smiths - Barbarism begins at home, bass tablature

Hello.
This is (I hope) the bassline of 'Barbarism Begins at Home' by the Smiths.
Since I haven't got a guitar within reach I took the tab out of my head.

(* 1 *)
G-|--------------------------|-----------------------|
D-|-----4--4-----------6--7--|-----4--4--------------|
A-|-----------2--4-----------|-----------2--3--4--3--|
E-|--2--------------2--------|--2--------------------|

[ Tab from: http://www.guitartabs.cc/tabs/s/smiths/barbarism_begins_at_home_btab.html ]
(* 2 *)
G-|-----------------------|-----------------------|
D-|-----------------6--7--|-----------------7--6--|
A-|--2--2--2--------------|--5--5--5--6--7--------|
E-|-----------4--5--------|-----------------------|


You repeat 1,2,1,2,1,2,...  until end ...1,2,1,3

(* 3 *)
G-|--------------------------------|-----------------------|-----
D-|--------------4--6--7--6--4-----|-----------------7--6--|-----
A-|--2--2--2--6-----------------2--|--5--5--5--6--7--------|-----
E-|--------------------------------|-----------------------|--2--


I hope I got it right. Sorry if I didn't.

******************************************************************
*                  Tabbed by   Anders Berggren                   *
*                                                                *
* Pretty girls make graves ---------- f92-abe@nada.kth.se        *
******************************************************************


Comments