Smith Will - Black Suits Comin Chords & Tabs

 

Black Suits Comin Chords & Tabs

Smith Will Chords & Tabs

Version: 3 Type: Tab 0 ratings
1 star 2 stars 3 stars 4 stars 5 stars
comments

Black Suits Comin Tab

Artist: Will Smith
Song Name: Blck suits coming (nod your head)

I dont have my electric near by but it sounds kinda right on the acoustic
hope u enjoy!

Chords:none
                     (riff 1)
e|-----------------------------------------|
B|-----------------------------------------|
G|-----------------------------------------|
D|-----------------------------------------|
A|-3(h)4(p)-1------------------------------|
E|------------3-----1(h)2(h)3---1(h)2(h)3--|

Repeat this as many times as the song goes then 
move to riff 2 ( i think its only twice before you move on two riff two)
[ Tab from: http://www.guitartabs.cc/tabs/s/smith_will/black_suits_comin_tab_ver_3.html ]
Chords:none
                     (Riff 2)
e|----------------------------------------------------------------|
B|----------------------------------------------------------------|
G|-------------------------------------------------------3--3-----|
D|-3(h)4(p)-1------------------------------------5---7---1--5-----|
A|-------------3---1(h)2(h)3---1(h)2(h)3---------3---5------------|
E|----------------------------------------------------------------|

After this bck to riff one, so on........

i cant get the intro but if anyone has some sort
 of idea, please E-mail me at...................gibsonjones@hotmail.com
Comments