Smith Will - Black Suits Comin Chords & Tabs

 

Black Suits Comin Chords & Tabs

Smith Will Chords & Tabs

Version: 2 Type: Tab 0 ratings
1 star 2 stars 3 stars 4 stars 5 stars
comments

Black Suits Comin Tab

   
Will Smith - Black Suits Comin' (Freme MEN IN BLACK 2).
Submitted By RAN HAREL, from Ashkelon, I S R A E L !!!

_____________________________________________________________


 Verse:

                           G
 e ---------------------------------------------------
 B ---------------------------------------------------
 G ---------------------------------------------------
 D ---------------------------------------------------
 A -3-4-3---------------3-4-3-------------------------
 E ------6-3---1-2-3---------6-3---1-2-3--------------


                           C

 e ---------------------------------------------------
 B ---------------------------------------------------
 G ---------------------------------------------------
 D -3-4-3---------------3-4-3--------3--5-------------
 A ------6-3---1-2-3---------6-3--6-------------------
 E ---------------------------------------------------

 Verse Chords: G, G, C, C.

[ Tab from: http://www.guitartabs.cc/tabs/s/smith_will/black_suits_comin_tab_ver_2.html ]
 Chorus:
 
                           G
 e ---------------------------------------------------
 B ---------------------------------------------------
 G ---------------------------------------------------
 D ---------------------------------------------------
 A -3-4-3---------------3-4-3-------------------------
 E ------6-3---1-2-3---------6-3---1-2-3--------------
                                                        
                           C

 e ---------------------------------------------------
 B ---------------------------------------------------
 G ---------------------------------------------------
 D -3-4-3---------------3-4-3--------3--5-------------
 A ------6-3---1-2-3---------6-3--6-------------------
 E ---------------------------------------------------


                           G
 e ---------------------------------------------------
 B ---------------------------------------------------
 G ---------------------------------------------------
 D ---------------------------------------------------
 A -3-4-3---------------3-4-3-------------------------
 E ------6-3---1-2-3---------6-3---1-2-3--------------

                           C

 e ---------------------------------------------------
 B ---------------------------------------------------
 G ---------------------------------------5--7--8--10
 D -3-4-3---------------3-4-3-------------5--7--8--10
 A ------6-3---1-2-3---------6-3---1-2-3--3--5--6--10
 E ---------------------------------------------------

 Chorus Chords: G, G, C, C, D, D#, F.

Submitted by RAN HAREL , I S R A E L    R U L E S  ! ! ! ! ! ! ! 
Comments