Smith Jesse L - Friends Chords & Tabs

 

Friends Chords & Tabs

Smith Jesse L Chords & Tabs

Version: 1 Type: Tab 0 ratings
1 star 2 stars 3 stars 4 stars 5 stars
comments

Friends Tab

   
friends--J.L.S.
slow and peacefull!
Intro--
     D            Dsus4           D       repeat:
---------------------------------------------------
---3/8--7-7\5----3/8--7-78\5-----3-2-2-3-----------
--2-------------2--------------2-------------------
-0------------0--------------0---------------------------------------------------------------------------------------------------------------------------
                                          repeat:
---------------------------------------------------
---3/10-10-12-10--10\7-7-8--3-3/5------------------
--2------------------------------------------------
-0-------------------------------------------------------------------------------------------------------------------------------------------------------
pre-lude                                                                                       repeat:
-----0--------2--3---2-----------------------------
---3--3----3---3--3---3----------------------------
--2----2-----2--2--2---2---------------------------
-0------0-0------0--0---0--------------------------------------------------------------------------------------------------------------------------------
go back to inrto then

chorus: D Dsus4 D drop E string:

that's it 

J.L.S the next S.R.V.






[ Tab from: http://www.guitartabs.cc/tabs/s/smith_jesse_l/friends_tab.html ]
Comments