Smilez And Southstar - Tell Me Chords & Tabs

 

Tell Me Chords & Tabs

Smilez And Southstar Chords & Tabs

Version: 1 Type: Tab 0 ratings
1 star 2 stars 3 stars 4 stars 5 stars
comments

Tell Me Tab

   
Smilez and Southstar - Tell Me

The Background Riff (flute)
                          *Pluck this 10, let ring, then slide.
e|---14-12-12--10--9--7--10/14-|
B|-----------------------------|
G|-----------------------------|  (repeat for the whole song)
D|-----------------------------|
A|-----------------------------|
E|-----------------------------|

The First Fill-in riff (organ slide)

e|--8/15------|
B|------------|
G|------------|(you'll know when to play this)
D|------------|
A|------------|
E|------------|

The Second Fill-in riff (Trumpet)
[ Tab from: http://www.guitartabs.cc/tabs/s/smilez_and_southstar/tell_me_tab.html ]
e|------------------------|
B|------------------------|
G|--12----14--12----------|(you'll know when to play this)
D|----------------14--12--|
A|------------------------|
E|------------------------|

Main Chords (Strings)
    F#/Gbm   D(5th fret) B    
e|----x--x---x--x--x--x--x--x-x-x--|
B|----2--x---x--x--x--x--x--x-x-2--|
G|----2--x---7--7--7--7--4--4-x-2--|
D|----4--x---7--7--7--7--4--4-x-4--|
A|----4--x---5--5--5--5--2--2-x-4--|
E|----x--x---5--5--5--5--2--2-x-x--|
      D      D  u  D  u  D  u   D
       
d - down stroke
u - up stroke
/ - slide  


AOL sn - wierddude2005
Comments