Smiley Kids - Useless Chords & Tabs

 

Useless Chords & Tabs

Smiley Kids Chords & Tabs

Version: 1 Type: Tab 0 ratings
1 star 2 stars 3 stars 4 stars 5 stars
comments

Useless Tab

Artist: Smiley Kids
Song: Useless
Album: Don't Get Bored
Transribed By: Josh T. and Zach Z.
Tabbed By: Josh T.
My Email: newdeal360@msn.com 
Tuning: Standard (you know what standard tuning is)
()=palm mute
[]= release pressure on the fret but keep position and strum strings

e|------------------------------------------------
B|------------------------------------------------
G|--------10-10-10-7-7-9-9-9-7-7-7----------------
D|--7-7-7--------------------------10-10---------- 
A|------------------------------------------------
E|------------------------------------------------

1st guitar plays this 12x and then on the 5th repeat of it the 2nd guitar comes 
in with this:

e|---------------------------------------
B|---------------------------------------
G|-------10*-----------------------------
D|-7*----10*--10*---7*-------------------
A--7*----8*---10*---7*-------------------
E|-5*---------8*----5*-------------------
*=let ring. play this through on each new interval of the 1st guitar solo and finish
through the 12th repeat then do..
this part is the intro continued and its also played again after the 1st chorus 

e|----------------------------------------------------------
B|----------------------------------------------------------
G|-------------------10-10-[10][10][10][10]-----------------
D|-7-7--[7][7][7][7]-10-10-[10][10][10][10]-10-10-[10][10]--
A|-7-7--[7][7][7][7]-8--8--[8]-[8]-[8]-[10]-10-10-[10][10]--
E|-5-5--[5][5][5][5]------------------------8--8--[8]-[8]---


e|-------------------------------------------------
B|-------------------------------------------------
G|----------7-7-[7][7][7][7]-----------------------
D|-[10][10]-7-7-[7][7][7][7]-----------------------
A|-[10][10]-5-5-[5][5][5][5]-----------------------
E|-[8]-[8]-----------------------------------------

both guitars do this
they play that twice and then while they play that same thing just w/o the released 
pressure strums, the other guitar does this

e|---------------------------------------------------
B|---------------------------------------------------
G|--9-9-9-9-9-9-9----9-9-9-9-9-9-9----9-9-9-9-9-9-9--
D|--7-7-7-7-7-7-7/5*\7-7-7-7-7-7-7/5*\7-7-7-7-7-7-7--
A|---------------------------------------------------
E|---------------------------------------------------

*dont pick that not just get the sound from sliding 

e|------------------
B|------------------
G|-5-5-5-5-5-5-5----
D|-3-3-3-3-3-3-3---- do those parts together twice 
A|------------------
E|------------------

this is the verse
[ Tab from: http://www.guitartabs.cc/tabs/s/smiley_kids/useless_tab.html ]
e|---------------------------------------------
B|---------------------------------------------
G|---------10-(10)*----------7-(7)*------------
D|-7-(7)*--10-(10)*-10-(10)*-7-(7)*------------
A|-7-(7)*--8--(8)*--10-(10)*-5-(5)*------------
E|-5-(5)*-----------8--(8)*--------------------

*palm mute six times i would write it out but im lazy and both guitars do that 4 times
this is the chorus

e|------------------------------------------------------
B|------------------------------------------------------
G|------------7-7-7-7-7--10-10-10-10-10-----------------
D|-7-7-7-7-7--7-7-7-7-7--10-10-10-10-10-10-10-10-10-10--
A|-7-7-7-7-7--5-5-5-5-5--8--8--8--8--8--10-10-10-10-10--
E|-5-5-5-5-5----------------------------8--8--8--8--8---

do that 4 times. and on the 2nd and 4th times instead of playing on 10th and 8th frets 
the last five chords play on the 12th and 10th i know i have horrible explanations but 
thats no important. then play the part i told you to play after the chorus earlier
repeat verse, repeat chorus
this is the part after the second chorus

e|-----------------------------------------------------
B|-----------------------------------------------------
G|-----------------------------------------------------
D|-7---8-7--8-7--8-7--8--------------------------------
A|-7---8-7--8-7--8-7--8--------------------------------
E|-5---6-5--6-5--6-5--6--------------------------------

e|----------------------------------------------------------
B|----------------------------------------------------------
G|----------------------------------------------------------
D|-7-(7)(7)-7-(7)(7)-7-(7)(7)-10-8--7-(7)(7)-5-(7)(7)-7-(7)-
A|-7-(7)(7)-7-(7)(7)-7-(7)(7)-10-8--7-(7)(7)-5-(7)(7)-7-(7)-
E|-5-(5)(5)-5-(5)(5)-5-(5)(5)-8--6--5-(5)(5)-7-(5)(5)-5-(5)-

e|-----------------------------------------------
B|-----------------------------------------------
G|-----------------------------------------------
D|-(7)-8-10-9------------------------------------
A|-(7)-8-10-9------------------------------------
E|-(5)-6-8--7------------------------------------
4x
guitar solo
e|---------------------------------
B|---------------------------------
G|---------------------------------
D|-----------------5-5----7-7------
A|-5-5-7-7-8-8-7-7----7-7---7-7----
E|---------------------------------
4x
the other guitar plays an A power chord on each new interval of the solo i just did
this is the next part right after the solo with the messed up distortion
e|-------------------------------------------------
B|-------------------------------------------------
G|-------10-10-10--7-7-7--9-9-9--------------------
D|-7-7-7-10-10-10--7-7-7--9-9-9--------------------
A|-7-7-7-8--8--8---5-5-5--7-7-7--------------------
E|-5-5-5-------------------------------------------
do this twice, and then while the other singer is screaming 
play this too during that time and then when the chorus comes guess what you do then. 
you play the chorus. only this time play it 4x. alright im done i hope this helped i 
really do it took me like 1 1/2 hours to do im sure you care ok cya 
Comments