Smile Empty Soul - Your Way Chords & Tabs

 

Your Way Chords & Tabs

Smile Empty Soul Chords & Tabs

Version: 1 Type: Tab 0 ratings
1 star 2 stars 3 stars 4 stars 5 stars
comments

Your Way Tab

   
Artist: Smile Empty Soul
Song: Your Way
Album: Smile Empty Soul (2003)

Tabbed by:  Adam Cowley (ajc)
Email: adam@areasix.co.uk

Tuning: Db Ab Db Gb Bb Eb

Intro: (Heavy Distortion)

  (1)                 |------------------(2)--x2--------------------|
Eb|-------------------|---------------------------------------------|
Bb|-------------------|o-------------------------------------------o|
Gb|-------------------|---------------------------------------------|
Db|--2-0-2-0-2-0-2-0--|---4-4-4-4-4-4--4p2---4-4-4-4-4-4p0--5h7h9---|
Ab|--2-0-2-0-2-0-2-0--|o--4-4-4-4-4-4--4p2---4-4-4-4-4-4p0--5h7h9--o|
Db|--2-0-2-0-2-0-2-0--|---4-4-4-4-4-4--4p2---4-4-4-4-4-4p0--5h7h9---| x2
PM:                           . . . .            . . .

Verse: (Light Distortion with possible feedback)  Something like this...

Eb|--------------------|
Bb|--------------------|
Gb|--------------------|
Db|--4~~~--\-2~~~---2--|
Ab|--4~~~--\-2~~~---2--|
Db|--4~~~--\-2~~~---2--|
        ^    ^      ^
        |    |      (3) Strum once
        |    (2) turn up volume as you slide the notes, develop feedback
         (1) turn up volume to make a swelling sound, then down again

                                                        
Stand there with your ball and chain,

Bitch about what you created,

All Caught up in the masquerade,
(1)----------------------------------
You've already been paid and made it.

So don't pretend you know what its like,
                           (2)----
To feel what we must live through,
---------------------------------
You only see with your dying eyes,
--------------------------------(3)
theres only one thing I will ask of you



Chorus: (Heavy Distortion)
[ Tab from: http://www.guitartabs.cc/tabs/s/smile_empty_soul/your_way_tab.html ]
Eb|-------------------------------|-------------------------------|
Bb|o------------------------------|------------------------------o|
Gb|-------------------------------|-------------------------------|
Db|---4-4-4--0-0-0--7-7-7--2-2-2--|--4-4-4--0-0-0--7-7-7--2-2-2---|
Ab|o--4-4-4--0-0-0--7-7-7--2-2-2--|--4-4-4--0-0-0--7-7-7--2-2-2--o|
Db|---4-4-4--0-0-0--7-7-7--2-2-2--|--4-4-4--0-0-0--7-7-7--2-2-2---|
PM:                                                       . . .


Can you take this life
Can you make it right
Do you have the words to make it all go away?
You act so wise, and so regined
Keep your bullshit lies cause
I'm never gunna go your way

Repeat Intro Part 2 x1


Bridge: (Clean Tone with Flange)

Eb|--------------------------------------------|
Bb|--------------------------------------------|
Gb|------6-7-6---------------------------------|
Db|--4-4-4-4-4---5-5-5h7h8---7-7-7-7--2-2-2-2--|
Ab|--4-4-4-4-4---5-5-5-5-5---7-7-7-7--2-2-2-2--|
Db|--4-4-4-4-4---5-5-5-5-5---7-7-7-7--2-2-2-2--|

Eb|--------------------------------------------|
Bb|--------------------------------------------|
Gb|------6-7-6---------------------------------|
Db|--4-4-4-4-4---5-5-5h8p7---7-7-7-7--2-2-2-2--|
Ab|--4-4-4-4-4---5-5-5-5-5---7-7-7-7--2-2-2-2--|
Db|--4-4-4-4-4---5-5-5-5-5---7-7-7-7--2-2-2-2--|

Eb|----------------------------------------------|
Bb|o--------------------------------------------o|
Gb|----------------------------------------------|
Db|---4-4-4-4-4---5-5-5-5-5---7-7-7-7--2-2-2-2---|
Ab|o--4-4-4-4-4---5-5-5-5-5---7-7-7-7--2-2-2-2--o|
Db|---4-4-4-4-4---5-5-5-5-5---7-7-7-7--2-2-2-2---|

Everybody needs to find their own way through life,
Everybody needs to find their own way


Outro: (Heavy Distortion)

Eb|---------------------------------------------|
Bb|o-------------------------------------------o|
Gb|---------------------------------------------|
Db|---4-4-4-4-4-4--4p2---4-4-4-4-4-4p0--5h7h9---|
Ab|o--4-4-4-4-4-4--4p2---4-4-4-4-4-4p0--5h7h9--o|
Db|---4-4-4-4-4-4--4p2---4-4-4-4-4-4p0--5h7h9---| x2



This should be about 95% right, I'm not too sure on the bridge though.
Please send any comments/suggestions to me at adam@areasix.co.uk
Comments