Smile Empty Soul - This Is War Chords & Tabs

 

This Is War Chords & Tabs

Smile Empty Soul Chords & Tabs

Version: 3 Type: Tab 0 ratings
1 star 2 stars 3 stars 4 stars 5 stars
comments

This Is War Tab

   
*  Note:  This is my work and cannot be considered thouroughly
accurate.  But effort is put into my work and I promise good quality always. *

Artist: Smile Empty Soul
Title:  " This is War "
Album:  "  Smile Empty Soul  " Debut
Guitar: Acoustic
Tuning: Standard   [  E; A; D; G; B; E  ]

( Key )
Slide Up & Down:  Up - /    ;  Down - \
\/\/\/\/\/\/\/\/\/\/\/\/\/\/\/\/\/\/\/\/\/\/\/\/\/\/\/\/\/\/\/\/\/\/\/\/\/\/\

(VERSE)  Riff Barre Chords ( In Order ):  Gb; F; G; Ab 
E:---------------------------------------------------------------------------
B:---------------------------------------------------------------------------
G:---------------------------------------------------------------------------
D:-4--\--3--/--5-/-6---------------------------------------------------------
A:-4--\--3--/--5-/-6---------------------------------------------------------
E:-2--\--1--/--3-/-4---------------------------------------------------------
  Gb     F     G   Ab  - *Strum Each Cord Lightly* 
[ Tab from: http://www.guitartabs.cc/tabs/s/smile_empty_soul/this_is_war_tab_ver_3.html ]
Gb                                 |
I'm just a normal man...           |
                           F       |
I wouldn't hurt nothing at all...  | Verse chords played like so on words
G           Ab                     | and strummed lightly.
Now here we are...                 |

(CHORUS)  Riff Barre Chords ( In order ):  B; Bb; C; Db
E:---------------------------------------------------------------------------
B:---------------------------------------------------------------------------
G:---------4----\--------3---/---------5-------/---------6-------------------
D:-----4-----4--\-----3----3-/-----5-------5---/------6-----6----------------
A:--2-----------\--1---------/--3--------------/---4-------------------------
E:---------------------------------------------------------------------------
         B            Bb              C                 Db
*Chorus chords are picked broken as shown above  2 times before switching.*

Listen to song for timing and repetition patterns but this can give you all the
right barre chords and notes. 

Have Fun!
Comments