Smile Empty Soul - This Is War Chords & Tabs

 

This Is War Chords & Tabs

Smile Empty Soul Chords & Tabs

Version: 2 Type: Tab 0 ratings
1 star 2 stars 3 stars 4 stars 5 stars
comments

This Is War Tab

Smile Empty Soul

"This is War"

Tabbed by
 Jordan Bridges and Chris Gafford

Sean plays this song at the end of a lot of his sets ... It's not right but its close... 
sure he tunes it down half a step by watching him play it live ... but you can also 
it this way .... Please be gentle it's my first attempt at tabbing a song.
Intro
E ----------------------------------------------------------------------------|
B ----------------------------------------------------------------------------|
G ----------------------------------------------------------------------------|
D --- 6-6-6-6-6-6-6-6-6-6-6-6-8-8-8-8-8-8-8-8-8-8-8-8-8-8-8-8-----------------|
A --- 6-6-6-6-6-6-6-6-8-8-8-8-9-9-9-9-9-9-9-9-8-8-8-8-9-9-9-9-----------------|
D --- 6-6-6-6-6-6-6-6-6-6-6-6-8-8-8-8-8-8-8-8-8-8-8-8-8-8-8-8-----------------|


E ----------------------------------------------------------------------------|
B ----------------------------------------------------------------------------|
G ----------------------------------------------------------------------------|
D -9-9-9-9-9-9-9-9-9--9--9--9--9-9-9-9-8-8-8-8-3-3-3-3-3-3-3------------------|
A -9-9-9-9-9-9-9-9-9--11-11-11-9-9-9-9-8-8-9-9-1-1-1-1-1-1-1------------------|
D -9-9-9-9-9-9-9-9-9--9--9--9--9-9-9-9-8-8-8-8--------------------------------|

E ----------------------------------------------------------------------------|
B ----------------------------------------------------------------------------|
G ----------------------------------------------------------------------------|
D -1-1-1-1-1-1-1-1-1-1-1-1-1-1-1-1--------------------------------------------|
A -1-1-1-1-1-1-1-1-1-1-1-1-1-1-1-1--------------------------------------------|
D -1-1-1-1-1-1-1-1-1-1-1-1-1-1-1-1--------------------------------------------|
[ Tab from: http://www.guitartabs.cc/tabs/s/smile_empty_soul/this_is_war_tab_ver_2.html ]
Verse
E ----------------------------------------------------------------------------|
B ----------------------------------------------------------------------------|
G ----------------------------------------------------------------------------|
A -6-6-6-6-6-6-6-6-6-6-6-6-6-8-8-8-9-9-9-9-9-9-9-9-9-9-9-9-9-8-8-8------------|
D -6-6-6-6-6-6-6-6-6-6-6-6-6-6-6-6-9-9-9-9-9-9-9-9-9-9-9-9-9-9-9-8------------|
A -6-6-6-6-6-6-6-6-6-6-6-6-6-6-6-6-9-9-9-9-9-9-9-9-9-9-9-9-9-8-8-8------------|

E ---------------------------------------------------------------------------|
B ---------------------------------------------------------------------------|
G ---------------------------------1-1-1-1-1-1-1-1-1-1-1-1-1-1-1-1-----------|
D -3-3-3-3-3-3-3-3-3-3-3-3-3-3-3-3-3-3-3-3-3-3-3-3-3-3-3-3-3-3-3-3-----------|
A -1-1-1-1-1-1-1-1-1-1-1-1-1-1-1-1-3-3-3-3-3-3-3-3-3-3-3-3-3-3-3-3-----------|
D ---------------------------------3-3-3-3-3-3-3-3-3-3-3-3-3-3-3-3-----------|

Chorus
E --------------------------------------------------------------------------|End of Chorus
B --------------------------------------------------------------------------|
G ----------4---------------------------------------------------------------|
D --4-------4--16X--1----------3-3-4------4-4-4-4-4-4-4-4-4-4-4-4-4-4-4-4---|
A --4--16X--6 ------1--14X-----1-1-2--16X-4-4-4-4-4-4-4-4-5-5-5-5-4-4-4-4---|2X
D --4---------------1---------------------4-4-4-4-4-4-4-4-4-4-4-4-4-4-4-4---|
I drove ... Flew .... Come to ...   Ho-use,Kick ...

E -----2------2--------------------1------1-------2------2---|
B ---2---2--2---2----2------2----1---1--1---1---2---2--2---2-|   Repeat
G------------------1---1--1--1------------------------------|
That's pretty much the whole song ... there is no bridge really ... E-mail me at
Undiman55@yahoo if you have a question or correction
Comments