Smile Empty Soul - Therapy Chords & Tabs

 

Therapy Chords & Tabs

Smile Empty Soul Chords & Tabs

Version: 4 Type: Tab 0 ratings
1 star 2 stars 3 stars 4 stars 5 stars
comments

Therapy Tab

   
I got the parts all down but I am not sure. This song is one that you
can really get into if you love to play so don't hesitate to go 
crazy once you learn it. Play it in a band and you will have the urge
to jump around and go crazy. Trust Me. I did. YOu have any ideas let
me know and I will correct them. Play Away.......

Palm Muted: ....
Slides: / or \
H: hammer

______________________________________________________________________

Intro:

Eb	[--------------------------------------------------------------]
Bb	[--------------------------------------------------------------]
Gb	[--------------------------------------------------------------]
Db	[----------55--------------55----------55---5------55---5------]
Ab	[------55------55------55------55-6666----6---8888----8---8----]
Db	[--55--------------55------------------------------------------]
	...........................................................


______________________________________________________________________

Intro Con't:
When you are playing this part the last 8 and 10's are not the
exact number of times that it is played. Work with it to sound
good...

Eb	[--------------------------------------------------------------]
Bb	[--------------------------------------------------------------]
Gb	[--------------------------------------------------------------]
Db	[--0-0-5-5-7-7-5-5-0-0-5-5-7-7-5-5-8-8-8-8-8-8/10-10-10-10-10--]
Ab	[--0-0-5-5-5-5-5-5-0-0-5-5-5-5-5-5-8-8-8-8-8-8/10-10-10-10-10--]
Db	[--0-0-5-5-----5-5-0-0-5-5-----5-5-8-8-8-8-8-8/10-10-10-10-10--]


______________________________________________________________________


Verse:

Eb	[--------------------------------------------------------------]
Bb	[--------------------------------------------------------------]
Gb	[--------------------------------------------------------------]
Db	[----------55--------------55----------55---5------55---5------]
Ab	[------55------55------55------55-6666----6---8888----8---8----]
Db	[--55--------------55------------------------------------------]
	...........................................................

______________________________________________________________________

Chours:

Eb	[--------------------------------------------------------------]
Bb	[--------------------------------------------------------------]
Gb	[--------------------------------------------------------------]
Db	[--0-0-5-5-7-7-5-5-0-0-5-5-7-7-5-5-8-8-8-8-8-8/10-10-10-10-10--]
Ab	[--0-0-5-5-5-5-5-5-0-0-5-5-5-5-5-5-8-8-8-8-8-8/10-10-10-10-10--]
Db	[--0-0-5-5-----5-5-0-0-5-5-----5-5-8-8-8-8-8-8/10-10-10-10-10--]


______________________________________________________________________


Interlude:


Eb	[--------------------------------------------------------------]
Bb	[--------------------------------------------------------------]
Gb	[--------------------------------------------------------------]
Db	[----------44--------------44----------44---4------44---4------]
Ab	[------44------44------44------44-5555----5---7777----7---7----]
Db	[--44--------------44------------------------------------------]
	...........................................................

______________________________________________________________________

Verse 2:

[ Tab from: http://www.guitartabs.cc/tabs/s/smile_empty_soul/therapy_tab_ver_4.html ]
Eb	[--------------------------------------------------------------]
Bb	[--------------------------------------------------------------]
Gb	[--------------------------------------------------------------]
Db	[----------55--------------55----------55---5------55---5------]
Ab	[------55------55------55------55-6666----6---8888----8---8----]
Db	[--55--------------55------------------------------------------]
	...........................................................


______________________________________________________________________

Chours:

Eb	[--------------------------------------------------------------]
Bb	[--------------------------------------------------------------]
Gb	[--------------------------------------------------------------]
Db	[--0-0-5-5-7-7-5-5-0-0-5-5-7-7-5-5-8-8-8-8-8-8/10-10-10-10-10--]
Ab	[--0-0-5-5-5-5-5-5-0-0-5-5-5-5-5-5-8-8-8-8-8-8/10-10-10-10-10--]
Db	[--0-0-5-5-----5-5-0-0-5-5-----5-5-8-8-8-8-8-8/10-10-10-10-10--]


______________________________________________________________________

Bridge:

When you are playing the Mutes Sean is barley muting them so it kind
of sounds like an open Chord and a mute at the same time. Takes time
to get it to sound right but once you do you will get it.

Eb	[--------------------------------------------------------------]
Bb	[--------------------------------------------------------------]
Gb	[--------------------------------------------------------------]
Db	[--5-5--x-x--5-5-5--x-x--5-5-----------------------------------]
Ab	[--5-5--x-x--5-5-5--x-x--5-5-----------------------------------]
Db	[--5-5--x-x--5-5-5--x-x--5-5-----------------------------------]


______________________________________________________________________

Bridge con't

When you hit the strings on this you have to hit them really light
so it doesn't sound as hard. And listen to the order and you will get 
the order.

Eb	[--------------------------------------------------------------]
Bb	[--------------------------------------------------------------]
Gb	[--------------------------------------------------------------]
Db	[--------------------------------------------------------------]
Ab	[--5-5----5-5----5----5-5----5-5----5--------------------------]
Db	[--5-5----5-5----5----5-5----5-5----5--------------------------]
	.......................................


______________________________________________________________________


Eb	[--------------------------------------------------------------]
Bb	[--------------------------------------------------------------]
Gb	[--------------------------------------------------------------]
Db	[----------55--------------55----------55---5------55---5------]
Ab	[------55------55------55------55-6666----6---8888----8---8----]
Db	[--55--------------55------------------------------------------]
	...........................................................


______________________________________________________________________

Chours:

Eb	[--------------------------------------------------------------]
Bb	[--------------------------------------------------------------]
Gb	[--------------------------------------------------------------]
Db	[--0-0-5-5-7-7-5-5-0-0-5-5-7-7-5-5-8-8-8-8-8-8/10-10-10-10-10--]
Ab	[--0-0-5-5-5-5-5-5-0-0-5-5-5-5-5-5-8-8-8-8-8-8/10-10-10-10-10--]
Db	[--0-0-5-5-----5-5-0-0-5-5-----5-5-8-8-8-8-8-8/10-10-10-10-10--]


______________________________________________________________________

Outro:


Eb	[--------------------------------|-----------------------------]
Bb	[--------------------------------|-----------------------------]
Gb	[--------------------------------|-----------------------------]
Db	[--5-5--x-x--5-5-5--x-x--5-5-----|--5-5--x-x--5-5--x-x--5------]
Ab	[--5-5--x-x--5-5-5--x-x--5-5-----|--5-5--x-x--5-5--x-x--5------]
Db	[--5-5--x-x--5-5-5--x-x--5-5-----|--5-5--x-x--5-5--x-x--5------]
Comments