Smile Empty Soul - Therapy Chords & Tabs

 

Therapy Chords & Tabs

Smile Empty Soul Chords & Tabs

Version: 1 Type: Bass Tab 0 ratings
1 star 2 stars 3 stars 4 stars 5 stars
comments

Therapy Bass Tab

Therapy
chorus
F# |---------------------------------------------------------|
C# |---------------------------------------------------------|
G# |-------55----------55------------------------------------|
C# |-00-55----55-00-55----55-8-8-8-8-8-8/-10-10-10-10-10-10--|

Verse
F# |-----------------------------------|
C# |-----------------------------------|
G# |------------1----------------------|* he might play this or he might not
C# |-5~--5/1~-1*--0--------------------|
[ Tab from: http://www.guitartabs.cc/tabs/s/smile_empty_soul/therapy_btab.html ]
Bridge part 1
F# |----------------------------------------------|
C# |----------------------------------------------|
G# |----------------------------------------------|
C# |-55-xx-555-xx-55------------------------------|

Bridge part 2
F# |----------------------------------------------|
C# |----------------------------------------------|
G# |----------------------------------------------|
C# |-55-55-5-55-55--5-----------------------------|

Verse x2 (come in at 36 seconds)
Chorus x 4
Verse x 4
Chorus x 4
Bridge part 1 x 2
Bridge part 2 x 2
Chorus x 4
Bridge part 1 x 2
Comments