Smile Empty Soul - Silhouettes Chords & Tabs

 

Silhouettes Chords & Tabs

Smile Empty Soul Chords & Tabs

Version: 3 Type: Tab 0 ratings
1 star 2 stars 3 stars 4 stars 5 stars
comments

Silhouettes Tab

   
Smile Empty Soul - Silhouettes

Tuning (low to high):  Db, Ab, Db, Gb, Bb, Eb

Intro (0:00):
 *clean tone w/ chorus or reverb or something like that
Eb|------------------------|------------------------|
Bb|------------------------|------------------------|
Gb|-------------3p0--------|-------------2p0--------|
Dd|-------5--------------5-|-------3--------------3-|
Ad|----5-----5--------5----|----3-----3--------3----|
Dd|-5----------------------|-3----------------------|

Eb|------------------------|------------------------|
Bb|-------------3----------|-------------3----------|
Gb|-------5--------5-----5-|----------5-----5-------| x5
Dd|----5-----5--------5----|-------5-----------5----|
Ad|-3----------------------|----3-----------------0-|
Dd|------------------------|------------------------|

Chorus 
Eb|------------------------|------------------------|
Bb|------------------------|------------------------|
Gb|-------------3----------|-------------5----------|
Dd|-------1--------1-----1-|-------3--------3-----3-|
Ad|----1-----1--------1----|----3-----3--------3----|
Dd|-1----------------------|-3----------------------|

Eb|------------------------|------------------------|
Bb|------------------------|------------------------|
Gb|-------------7----------|-------------2----------|  x4
Dd|-------5--------5-----5-|-------0--------0-----0-|  then to verse 2
Ad|----5-----5--------5----|----0-----0--------0----|
Dd|-5----------------------|-0----------------------|

Verse 2                      
Eb|------------------------|------------------------|
Bb|------------------------|------------------------|
Gb|-------------3p0--------|-------------2p0--------|
Dd|-------5--------------5-|-------3--------------3-|
Ad|----5-----5--------5----|----3-----3--------3----|
Dd|-5----------------------|-3----------------------|
                                         
Eb|------------------------|------------------------|
Bb|-------------3----------|-------------3----------|
Gb|-------5--------5-----5-|----------5-----5-------|
Dd|----5-----5--------5----|-------5-----------5----|
Ad|-3----------------------|----3-----------------0-|
Dd|------------------------|------------------------|
                  
Eb|------------------------|------------------------|
Bb|------------------------|------------------------|
Gb|------------------------|------------------------|
Dd|-5--------5----5---5----|-----3---3-------3------|
Ad|-5--------5----5---5----|-----3---3-------3------|
Dd|-5--------5----5---5----|-----3---3-------3------|

Eb|------------------------|------------------------|
Bb|------------------------|------------------------|
Gb|-5--------5----5---5----|-----5---5-------5------|  x2 1/2 then to chorus
Dd|-5--------5----5---5----|-----5---5-------5------|
Ad|-3--------3----3---3----|-----3---3-------3------|
Dd|------------------------|------------------------|
    

Intro to Bridge w/ distortion
Eb|------------------------|------------------------|
Bb|------------------------|------------------------|
Gb|------------------------|------------------------|
Db|------------------------|---0-------0-------0----|
Ab|------------------------|---0-------0-------0----|
Db|------------------------|---0-------0-------0----|

Eb|------------------------|------------------------|
Bb|------------------------|------------------------|
Gb|------------------------|------------------------|
Db|-1---------(1)----------|-3----------(3)---------|
Ab|-1---------(1)----------|-3----------(3)---------|
Db|-1---------(1)----------|-3----------(3)---------|

Bridge (clean)
Eb|------------------------|------------------------|
Bb|------------------------|---------------1--------|
Gb|---------0-------0------|--------3-------------3-|
Db|------------------------|-3----------------------|
Ab|------------------------|------------------------|
Db|-5----------------------|------------------------|

Eb|------------------------|------------------------|
Bb|------------------------|------------------------|
Gb|------------5-----------|-5--5--5--5\3--3--3--3--|
Db|--------5--------5------|-5--5--5--5\3--3--3--3--|
Ab|----3-------------------|-3--3--3--3\1--1--1--1--|
Db|-3----------------------|------------------------|

Eb|------------------------|------------------------|
Bb|------------------------|------------------------|
Gb|------------3-----------|------------5-----------|
Dd|-------1---------1------|-------3---------3------|
Ad|----1-------------------|----3-------------------|
Dd|-1----------------------|-3----------------------|

Eb|------------------------|------------------------|
Bb|------------------------|------------------------|
Gb|------------7-----------|------------------------|
Db|-------5---------5------|---0-------0-------0----|
Ab|----5-------------------|---0-------0-------0----|
Db|-5----------------------|---0-------0-------0----|
         
Eb|------------------------|------------------------|
Bb|------------------------|------------------------|
Gb|------------------------|---3-------3-------3----|
Db|-5---------5---5---5----|---3-------3-------3----|
Ab|-5---------5---5---5----|---1-------1-------1----|
Db|-5---------5---5---5----|------------------------|

Eb|------------------------|------------------------|
Bb|------------------------|------------------------|
Gb|------------------------|-5--5--5--5\3--3--3--3--|
Db|-3---------3---3---3----|-5--5--5--5\3--3--3--3--|
Ab|-3---------3---3---3----|-3--3--3--3\1--1--1--1--|
Db|-3---------3---3---3----|------------------------|

Eb|------------------------|------------------------|
Bb|------------------------|------------------------|
Gb|------------------------|------------------------|
Db|-1--(1)----1------(1)---|-3--3--3----3-----(3)---|
Ab|-1--(1)----1------(1)---|-3--3--3----3-----(3)---|
Db|-1--(1)----1------(1)---|-3--3--3----3-----(3)---|
[ Tab from: http://www.guitartabs.cc/tabs/s/smile_empty_soul/silhouettes_tab_ver_3.html ]
   w/ distortion
Eb|------------------------|------------------------|
Bb|------------------------|------------------------|
Gb|------------------------|------------------------|
Db|-5---------(5)----------|-0---------(0)----------|
Ab|-5---------(5)----------|-0---------(0)----------|
Db|-5---------(5)----------|-0---------(0)----------|

Eb|------------------------|------------------------|
Bb|------------------------|----------9b10----(10)--|
Gb|------------------------|------------------------|
Db|-----------(0)----------|------------------------|
Ab|-----------(0)----------|------------------------|
Db|-----------(0)----------|------------------------|

Chorus II w/ distortion
Eb|------------------------|------------------------|
Bb|------------------------|------------------------|
Gb|------------------------|------------------------|
Db|-1--1--1--1--1--1--1--1/|-3--3--3--3--3--3--3--3/|
Ab|-1--1--1--1--1--1--1--1/|-3--3--3--3--3--3--3--3/|
Db|-1--1--1--1--1--1--1--1/|-3--3--3--3--3--3--3--3/|

Eb|------------------------|------------------------|
Bb|------------------------|------------------------|
Gb|------------------------|------------------------|
Db|-5--5--5--5--5--5--5--5-|-0--0--0--0--0--0--0--0-|
Ab|-5--5--5--5--5--5--5--5-|-0--0--0--0--0--0--0--0-|
Db|-5--5--5--5--5--5--5--5-|-0--0--0--0--0--0--0--0-|

Eb|------------------------|------------------------|
Bb|------------------------|------------------------|
Gb|------------------------|------------------------|
Db|-1--1--1--1--1--1--1--1-|-3--3--3--3--3--3--3--3-|
Ab|-1--1--1--1--1--1--1--1-|-3--3--3--3--3--3--3--3-|
Db|-1--1--1--1--1--1--1--1-|-3--3--3--3--3--3--3--3-|

Eb|------------------------|------------------------|
Bb|------------------------|------------------------|
Gb|------------------------|------------------------|
Db|-5--5--5--5--5--5--5--5\|0--------0------0-------|
Ab|-5--5--5--5--5--5--5--5\|0--------0------0-------|
Db|-5--5--5--5--5--5--5--5\|0--------0------0-------|

Eb|------------------------|------------------------|
Bb|------------------------|------------------------|
Gb|------------------------|------------------------|
Db|-1--1--1--1--1--1--1--1-|-3--3--3--3--3--3--3--3-|
Ab|-1--1--1--1--1--1--1--1-|-3--3--3--3--3--3--3--3-|
Db|-1--1--1--1--1--1--1--1-|-3--3--3--3--3--3--3--3-|

Eb|------------------------|------------------------|
Bb|------------------------|------------------------|
Gb|------------------------|------------------------|
Db|-5--5--5--5--5--5--5--5\|-0--0--0----------------|
Ab|-5--5--5--5--5--5--5--5\|-0--0--0----------------|
Db|-5--5--5--5--5--5--5--5\|-0--0--0----------------|
                             pm pm

Outro
Eb|------------------------|------------------------|
Bb|------------------------|------------------------|
Gb|------------------------|------------------------|
Db|-1--1--1--1--1--1--1--1-|-3--3--3--3--3--3--3--3-|
Ab|-1--1--1--1--1--1--1--1-|-3--3--3--3--3--3--3--3-|
Db|-1--1--1--1--1--1--1--1-|-3--3--3--3--3--3--3--3-|

Eb|------------------------|------------------------|
Bb|------------------------|------------------------|
Gb|------------------------|------------------------|
Db|-5--5--5--5--5--5--5--5-|-0--0--0--0--0--0--0--0-|  x3
Ab|-5--5--5--5--5--5--5--5-|-0--0--0--0--0--0--0--0-|
Db|-5--5--5--5--5--5--5--5-|-0--0--0--0--0--0--0--0-|
    
Eb|------------------------|------------------------|
Bb|------------------------|------------------------|
Gb|------------------------|------------------------|
Db|-1--1--1--1--1--1--1--1-|-3--3--3--3--3--3--3--3-|
Ab|-1--1--1--1--1--1--1--1-|-3--3--3--3--3--3--3--3-|
Db|-1--1--1--1--1--1--1--1-|-3--3--3--3--3--3--3--3-|

Eb|------------------------|------------------------|
Bb|------------------------|------------------------|
Gb|------------------------|------------------------|
Db|-5--5--5--5--5--5--5--5-|-0--0-------------------|
Ab|-5--5--5--5--5--5--5--5-|-0--0-------------------|
Db|-5--5--5--5--5--5--5--5-|-0--0--12\--------------|
                             pm pm
Eb|------------------------|------------------------|
Bb|------------------------|------------------------|
Gb|------------------------|------------------------|
Db|-1--1--1--1--1--1--1--1-|-3--3--3--3--3--3--3--3-|
Ab|-1--1--1--1--1--1--1--1-|-3--3--3--3--3--3--3--3-|
Db|-1--1--1--1--1--1--1--1-|-3--3--3--3--3--3--3--3-|

Eb|------------------------|------------------------|
Bb|------------------------|------------------------|
Gb|------------------------|------------------------|
Db|-5--5--5--5--5--5--5--5-|-0--0--0--0--0--0--0--0-|
Ab|-5--5--5--5--5--5--5--5-|-0--0--0--0--0--0--0--0-|
Db|-5--5--5--5--5--5--5--5-|-0--0--0--0--0--0--0--0-|

Eb|------------------------|------------------------|
Bb|------------------------|------------------------|
Gb|------------------------|------------------------|
Db|-1----1--1-----1---1--1-|-1----1--1-----1---1--1/|
Ab|-1----1--1-----1---1--1-|-1----1--1-----1---1--1/|
Db|-1----1--1-----1---1--1-|-1----1--1-----1---1--1/|

Eb|------------------------|------------------------|
Bb|------------------------|------------------------|
Gb|------------------------|------------------------|
Db|-3----3--3-----3---3--3-|-3----3--3-----3---3--3-|
Ab|-3----3--3-----3---3--3-|-3----3--3-----3---3--3-|
Db|-3----3--3-----3---3--3-|-3----3--3-----3---3--3-|

*clean tone w/ chorus or phaser or flanger or something
ritardando from here to the end (slow tempo down)
Eb|------------------------|------------------------|
Bb|------------------------|------------------------|
Gb|-------------3p0--------|-------------2p0--------|
Dd|-------5--------------5-|-------3--------------3-|
Ad|----5-----5--------5----|----3-----3--------3----|
Dd|-5----------------------|-3----------------------|

Eb|------------------------|------------------------|
Bb|-------------3----------|------------------------|
Gb|-------5--------5-----5-|----------(5)-----------|
Dd|----5-----5--------5----|------------------------|
Ad|-3----------------------|------------------------|
Dd|------------------------|------------------------|
Comments