Smile Empty Soul - Silhouettes Chords & Tabs

 

Silhouettes Chords & Tabs

Smile Empty Soul Chords & Tabs

Version: 1 Type: Tab 2 ratings
1 star 2 stars 3 stars 4 stars 5 stars
comments

Silhouettes Tab

artist: smile empty soul
song: silhouettes


tuned down half a step - then drop d


intro / verses

eb------------------------------------------------------------------
Bb---------------------------------------1---3p1---1-----1-3p1---1--
Gb-------0---3p0---0-----0---2p0---0---0---0-----0-----0-------0----
Db-----0---0-----0-----0---0-----0----------------------------------
Ab-----------------------------------3---------------3--------------
Db---5---------------3----------------------------------------------


chorus

eb-------------------------------------------------------------------
Bb-------------------------------------------------------------------
Gb----------3---------------5---------------7---------------2--------
Db------1-----1---1-----3-----3---3-----5-----5---5-----0-----0---0--
Ab----1---1-----1-----3---3-----3-----5---5-----5-----0---0-----0----
Db--1---------------3---------------5---------------0----------------


2nd verse is basically the same, except that it switches between picking and chords
there are also couple of little riffs over the top

1:01

eb---------------------
Bb--10b11r10b11r10-----
Gb---------------------
Db---------------------
Ab---------------------
Db---------------------

the verse chords are

eb-------------
Bb-------------
Gb---------5---
Db---5--3--5---
Ab---5--3--3---
Db---5--3------


1:18

eb--------
Bb--6b8---
Gb--------    bend slowly
Db--------
Ab--------
Db--------


chorus


lead into bridge

eb-----------
Bb-----------
Gb-----------
Db--0--1--3--
Ab--0--1--3--
Db--0--1--3--


bridge

gtr 1
[ Tab from: http://www.guitartabs.cc/tabs/s/smile_empty_soul/silhouettes_tab.html ]
eb-----------------------------------------------------------------------------------
Bb----------------------------------------------------------3--------10b11r10b11r10--
Gb-------0---0---3---5-3----3---5-3--5-5-5-3------------2-------7-7------------------
Db-----0---0-------------------------5-5-5-3----------0---0-----7-7------------------
Ab-------------1---1-----------------3-3-3-1--------------------5-5------------------
Db---5--------------------3---3---------------1--3--5--------------------------------


gtr 2

eb--------------------------------------------11-13-10-------------------------------
Bb-----------------------------------------------------------------------------------
Gb-----------------------------------------------------------------------------------


bridge, 2nd half, chords

eb---------------------------------------------
Bb--------------------------------9b10---11----   bend slowly then let ring
Gb------3-----5--3-----------------------------
Db---5--3--3--5--3--1--3--5--0-----------------
Ab---5--1--3--3--1--1--3--5--0-----------------
Db---5-----3--------1--3--5--0-----------------


goes to heavy chorus

eb----------------
Bb----------------
Gb----------------
Db---1--3--5--0---
Ab---1--3--5--0---
Db---1--3--5--0---


3:25
listen carefully for exact timing

eb----------------------------------------------------------------------------------------------
Bb--11-11-11-11-11-11-11-11-10-10-10-10-11-10-11-10-10-10-10-10-10-10-10-10-10-10-11-10-11-10---
Gb----------------------------------------------------------------------------------------------


outro

eb-----------------------------------------------------
Bb---------------------------------------1---3-1---3---
Gb-------0---3p0---0-----0---2p0---0---0---0-----0-----
Db-----0---0-----0-----0---0-----0---------------------
Ab-----------------------------------3-----------------
Db---5---------------3---------------------------------



tabbed by matt rosengarten
maros5@student.monash.edu
Comments