Smile Empty Soul - Nowhere Kids Chords & Tabs

 

Nowhere Kids Chords & Tabs

Smile Empty Soul Chords & Tabs

Version: 4 Type: Tab 0 ratings
1 star 2 stars 3 stars 4 stars 5 stars
comments

Nowhere Kids Tab

Smile Empty Soul
"Nowhere Kids"
Smile Empty Soul
Tuning: Drop D and a half step down
tabbed by: robert walden

Intro/Chorus (for intro slowly turn distortion higher and higher as u go)
-----------------------------------------
-----------------------------------------
-----------------------------------------
-5h7-7-5h7-999-101010-9h10-10-10-10p9-5-5
-5h7-7-5h7-777--8-8-8-9h10-10-10-10p9-5-5
-5h7-7-5h7------------9h10-10-10-10p9-5-5

Verse
-3--------------3-------------
--3-2------------3-2----------
------------------------------
------------------------------
------5h7-7-5h7------5h7-7-7-7
------5h7-7-5h7------5h7-7-7-7

After chorus riff
------------------------                ------------------------
------------------------                ------------------------
------------------------                ------------------------
------------------------                ------------------------
-5h7-7-5h7=10-10-10-10-9-               -7777-10101010-9999-5555
-5h7-7-5h7-10-10-10-10-9-repeat 3X then -7777-10101010-9999-5555
[ Tab from: http://www.guitartabs.cc/tabs/s/smile_empty_soul/nowhere_kids_tab_ver_4.html ]
Second Verse: Intro and verse

Second and third chorus fill (repeat how many times necessary
-3h5-5-3h5-3-3h5
----------------
----------------
----------------
----------------
----------------

End chorus like above except for 7-10-3 instead of 7777-10101010-9999-5555

Bridge
-----0----
---------0
-------2--
----------
---0------
-3-------- play around with that a little

"as long as we smile" part (clean, no distortion)
------------------
------------------
------------------
------------------
-5h7-7-5h7-7-5h7-7
-5h7-7-5h7-7-5h7-7 not sure how many times to repeat listen to song

Outro
----------------------
----------------------
----------------------
-7-10-3-5-1-----1----2
-7-10-3-5-1-----1---1-
-7-10-3-5-1-----1-1--- - this accompanied by various string vibrations

that is about it, this is a great song, listen for exact timing and all that, i
didnt have enough time on my hands to include timing and exact order and all that
but use your heads :)
Im me at kornfellow91 (aim) for comments or leave one in correction box above thanks
Comments