Smile Empty Soul - Nowhere Kids Chords & Tabs

 

Nowhere Kids Chords & Tabs

Smile Empty Soul Chords & Tabs

Version: 2 Type: Tab 1 rating
1 star 2 stars 3 stars 4 stars 5 stars
comments

Nowhere Kids Tab

   
Band: Smile Empty Soul
Song: Nowhere Kids
Tabbed by: The Feebleminded

Once again i'm tabbing a brilliant song by Smile Empty Soul Nuff said!!!
So this is how it goes....

this band uses C# tuning or drop D half a step down (CGCFAD)

Intro/Chorus
D#|-------------------|
A#|-------------------|
F#|------9-10-5------*|
C#|-5-7--9-10-5-5-0--*|
G#|-5-7--7/8--3-5-0---|
C#|-5h7---------5-0---|

Verse
   bar 1	bar 2
D#|------------|----------------|
A#|-8----------|-8--------------|
F#|---7-5------|---7-5------5---|
C#|--------5-7-|--------5-7-5-5-|
G#|--------5-7-|--------5-7-3-5-|
C#|--------5h7-|--------5h7---5-|

Intro/Chorus
Pre-Verse
   bar 1      bar 2
D#|----------|----------|
A#|----------|----------|
F#|-----5-3-*|----------|
C#|-5-7-x-x-*|-5-7-10-3-|
G#|-5-7-3-2--|-5-7-10-3-|
C#|-5h7------|-5h7-10-3-|

Intro/chorus: with no distorsion
Verse: just play bar 2
Intro/Chorus: with this bit half way through listen to when it comes in
D#|------------------------------|-7h8-8-8-8-|
A#|-8h10-10-10-10--8h10-10-10-10-|-----------|
F#|------------------------------|Harmonising|
C#|------------------------------|bit--------|
G#|------------------------------|-----------|
C#|------------------------------|-----------|
[ Tab from: http://www.guitartabs.cc/tabs/s/smile_empty_soul/nowhere_kids_tab_ver_2.html ]
Pre-Verse: play the 8h10 bit with it listen to when it comes in
D#|----------|--------|
A#|----------|--------|
F#|-----5-3-*|--------|
C#|-5-7-x-x-*|-7-10-3-|
G#|-5-7-3-2--|-7-10-3-|
C#|-5h7------|-7-10-3-|

Bridge
D#|----------------------|    ---------------------|
A#|-----5---------5------|    -----5---------5-----|
F#|-------4-5-------4-2--|    -------4-5-------4-2-|
C#|-3-3-------3-3--------|x2  -7-7-------3-3-------|x2
G#|-3-3-------3-3--------|    -7-7-------3-3-------|
C#|-3-3-------3-3--------|    -7-7-------3-3-------|

D#|-------------------|
A#|-------------------|
F#|-----9-9-------5-5-|
C#|-7-7-9-9---3-3-3-3-|x2
G#|-7-7-7-7---3-3-3-3-|
C#|-7-7-7-7---3-3-3-3-|

D#|-----|
A#|-----|play this a whole lot of times
F#|-----|it comes in when Shaun
C#|-5-7-|'as long as we smile... smile'
G#|-5-7-|
C#|-5h7-|

Intro/Chorus
then half way through that play the 8h10 fill till the end
then the pre-verseis the same
Outro
D#|------------|
A#|------------|
F#|------------|
C#|-7-10-3-5-1-|
G#|-7-10-3-5-1-|
C#|-7-10-3-5-1-|

And that is it for today or night, this was a pretty easy song to do
but none the less it's ROCKS!!! I dedicate this to my friend Rob
with the Broken wrist Shot Dude for lending me this CD it rocks!
Any corrections or comments email me @ feeblebase@yahoo.com
Comments