Smile Empty Soul - Nowhere Kids Chords & Tabs

 

Nowhere Kids Chords & Tabs

Smile Empty Soul Chords & Tabs

Version: 1 Type: Tab 0 ratings
1 star 2 stars 3 stars 4 stars 5 stars
comments

Nowhere Kids Tab

Artist: Smile Empty Soul
Song: Nowhere Kids
Tabbed By:Rudy
Website: www.geocities.com/creed989

   I worked hard on this tab. Hope you appreciate it. Awesome song!!

Tune: Drop D, Down half a step


Intro: (with effect)
--------------------------------
--------------------------------
--------------------------------
--------------------------------
-------------7-7-8-8--3-3-------
--5h7-7-7-7----------------5-5--
                                                                              
Intro/Chorus: Distortion
----------------------------------
----------------------------------
----------------------------------
--5h7-7-7-7--9-9--10-10-5-5--5-5--
--5h7-7-7-7--7-7--8--8--3-3--5-5--
--5h7-7-7-7------------------5-5--
                                                                              
Verse:(clean w/ some effect?)
--3--------|------------|--3-------|--------------------------
----3--2---|------------|----3--2--|--------------------------
-----------|------------|----------|------------5-5-5---------
-----------|--5h7-7-7-7-|----------|-5h7-7-7-7--5-5-5--5-5-5--
-----------|--5h7-7-7-7-|----------|-5h7-7-7-7--3-3-3--5-5-5--
-----------|--5h7-7-7-7-|----------|-5h7-7-7-7---------5-5-5--
                                                                              
*Chorus*

After Chorus part:      End with:
-----------------------|--------------------
-----------------------|--------------------
--------------5-5--4-4-|----------5-5-------
-5h7-7-7-7--5-5--4-4-|-5h7-7-7--5-5--5-5--
-5h7-7-7-7--3-3--2-2-|-5h7-7-7--3-3--5-5--
-5h7-7-7-7-----------|-5h7-7-7-------5-5--

*Chorus* Clean
[ Tab from: http://www.guitartabs.cc/tabs/s/smile_empty_soul/nowhere_kids_tab.html ]
Shorter Verse:(clean w/ some effect?)
--3-------|--------------------------
----3--2--|--------------------------
----------|------------5-5-5---------
----------|-5h7-7-7-7--5-5-5--5-5-5--
----------|-5h7-7-7-7--3-3-3--5-5-5--
----------|-5h7-7-7-7---------5-5-5--

*Chorus* (During this chorus 2nd guitar plays this)
------------------------------
-8h10-10-10-10--8h10-10-10-10-
------------------------------
------------------------------
------------------------------
------------------------------

After Chorus Part:      End with:
-----------------------|------------
-----------------------|------------
--------------5-5--4-4-|-----5------
-5h7-7-7-7--5-5--4-4-|--7--5--3---
-5h7-7-7-7--3-3--2-2-|--7--3--3---
-5h7-7-7-7-----------|--7-----3---

Quiet Part:"What did you expect..."(listen VERY carefully!)
2x                              2x                          Then:
-----0-------0------0-------0--|-----0-----0-----0-----0---|--------------------
-------0-1---1--------0-----0--|-----1-----1-----0-----0---|--------------------
------------------------2---2--|-----------------2-----2---|--------------------
---2---------------------------|---2------2----------------|--5h7-7-7-5h7-7-7-7-
-0---------------3-------------|-0------0------3-----3-----|--5h7-7-7-5h7-7-7-7-
---------------3---------------|-------------3-----3-------|--5h7-7-7-5h7-7-7-7-
                                                                              
*Chorus w/ 2nd guitar part*

After Chorus Part:      End with:
-----------------------|-----------------
-----------------------|-----------------
--------------5-5--4-4-|-----5-----------
-5h7-7-7-7--5-5--4-4-|--7--5--3--5--1--
-5h7-7-7-7--3-3--2-2-|--7--3--3--5--1--
-5h7-7-7-7-----------|--7-----3--5--1--
                                                                              
Its over!! Hope this helped you out!
www.geocities.com/creed989
Comments