Smile Empty Soul - Nowhere Kids Chords & Tabs

 

Nowhere Kids Chords & Tabs

Smile Empty Soul Chords & Tabs

Version: 1 Type: Bass Tab 0 ratings
1 star 2 stars 3 stars 4 stars 5 stars
comments

Nowhere Kids Bass Tab

   
Band- Smile Empty Soul
Song- Nowhere Kids

STANDARD TUNING [G,D,A,E]

INTRO:

START AT 00:05

-------------------|
-------------------|
-------------------|
-\4-[LET RING]

------------------------------------------------|
------------------------------------------------|
------------66667777----------------------------|
44444-44-------------77777-77/2222222-----------|

---------------------------------------------|
---------------------------------------------|
------------66667777-------------------------|
44444-44-------------77777-77/22222----------|

VERSE:

--------------------------------|
--------------------------------|
--------------------------------|
44444-\77777-77/22-0-22---------|

CHORUS:
[ Tab from: http://www.guitartabs.cc/tabs/s/smile_empty_soul/nowhere_kids_btab.html ]
------------------------------------------------|
------------------------------------------------|
------------66667777----------------------------|
44444-44-------------77777-77/2222222-----------|

FILL THING:

---------------------|
---------------------|  X3
---------------------|
44444-\77776666

----------------------|
----------------------|
----------------------|
4444-7777-22222

BRIDGE:

-------|
-------|
-------|
4-7-0

PART II
--------------------11-9-------|
------------------9------9-----|
----------------7--------------|
00-00-44-44--------------------|

BOTH 00 AND (00) AND 44 AND (44) ARE PLAYED THE SECOND TIME THROUGH

DID BOTHER WITH OUTRO SAME AS FILL THING JUST DIFFERENT END NOTE

ORDER:
INTRO
VERSE X4
CHORUS X4
FILL THING X1
PAUSE
VERSE X2
CHORUS X4
BRIDGE X2 [ONLY PLAY PART II THE SECOND TIME]
PAUSE [HOLD ON 4]
CHORUS X4
OUTRO X1
Comments