Smile Empty Soul - For You Chords & Tabs

 

For You Chords & Tabs

Smile Empty Soul Chords & Tabs

Version: 2 Type: Tab 0 ratings
1 star 2 stars 3 stars 4 stars 5 stars
comments

For You Tab

   
-------------------------------------------------------------------------------
			     Smile Empty Soul - For You
-------------------------------------------------------------------------------
Tabbed by: Adam Cowley (ajc)
Email: adam@areasix.co.uk

Tuning: Drop Db (Db Ab Db Gb Bb Eb)

Key:
x   Mute String
/   Slide Up
\   Slide Down
^   Upstroke
v   Downstroke

Intro:
eb|---------------------------------------------------------------------------------------------------|
Bb|-----------------------------------------------------10-10-10-10--8-8-8---8-8--6-6-6---6-6--5-5-5--|
Gb|----10---10---10---9--9-----7---7----7---5---5-------10-10-10-10--9-9-9---9-9--7-7-7---7-7--5-5-5--|
Db|-------0----0----0-------0----0---0----0---0--0------10-10-10-10--9-9-9---9-9--7-7-7---7-7--5-5-5--|
Ab|--0--------------------------------------------------8--8--8--8---7-7-7---7-7--5-5-5---5-5--3-3-3--|
Db|--0----------------------------------------------0-------------------------------------------------|
                                             (stroke:) v  v  v  ^   v ^ v   v ^  v ^ v   v ^  v ^ v


Verse:  May not be exact strumming but it's not hard to work out, just a combination of downstrokes
        and upstrokes.  Make sure you hit the open Db for the eary feel!
eb|------------------------------------------------------------------------------------------------|
Bb|------------------------------------------------------------------------------------------------|
Gb|------10-10-10-10---9-9-9---9-9--7-7-7---7-7--5-5-5--------------------------10-10-10-\--5-5-5--|
Db|------10-10-10-10---9-9-9---9-9--7-7-7---7-7--5-5-5---3-3-3-3-/-5-5-5-5------x--x--x--\--x-x-x--|
Ab|--0----8--8--8--8---7-7-7---7-7--5-5-5---5-5--3-3-3---3-3-3-3-/-5-5-5-5--0---8--8--8--\--3-3-3--|
Db|--0----0--0--0--0---0-0-0---0-0--0-0-0---0-0--0-0-0---3-3-3-3-/-5-5-5-5--0----------------------|


Chorus:  98% Sure on this, its pretty close if its not right.  Same again with the strumming pattern.
[ Tab from: http://www.guitartabs.cc/tabs/s/smile_empty_soul/for_you_tab_ver_2.html ]
eb|---------------------------------------------------------------------------------|
Bb|---------------------------------------------------------------------------------|
Gb|-----------------2-2-2-----------------------------------------------------------|
Db|--8-8-8-8-8-8--0-0-0-0---3x-3x--3-3-/-5-5-5-5-5-5--5-5--5-5-5-5-5-5---5-5-(/-8)--|
Ab|--8-8-8-8-8-8--0-0-0-0---3x-3x--3-3-/-5-5-5-5-5-5--5-5--5-5-5-5-5-5---5-5-(/-8)--|
Db|--8-8-8-8-8-8--0-0-0-0---3x-3x--3-3-/-5-5-5-5-5-5--5-5--5-5-5-5-5-5---5-5-(/-8)--|
                                                                              ^ slide to 8 and repeat

Last Chorus Run-through:

eb|-------------------------------------------|
Bb|-------------------------------------------|
Gb|-------------------------10-10-10-/-9-9-9--|
Db|--8-8-8-8-8-8--0-0-0-0---x--x--x--/-x-x-x--|
Ab|--8-8-8-8-8-8--0-0-0-0---8--8--8--/-7-7-7--|
Db|--8-8-8-8-8-8--0-0-0-0---------------------|


Interlude ("Why's it always have to be me...")

eb|------------------------------------------------------------------------------------------|
Bb|------------------------------------------------------------------------------------------|
Gb|------10-10-10-10---9-9-9---9-9--7-7-7---7-7--5-5-5--------------------10-10-10-\--5-5-5--|
Db|------10-10-10-10---9-9-9---9-9--7-7-7---7-7--5-5-5---3x-3x--5x-5x--0--x--x--x--\--x-x-x--|
Ab|--0----8--8--8--8---7-7-7---7-7--5-5-5---5-5--3-3-3---3x-3x--5x-5x--0--8--8--8--\--3-3-3--|
Db|--0----0--0--0--0---0-0-0---0-0--0-0-0---0-0--0-0-0---3x-3x--5x-5x--0---------------------|


Outro (Hit Distortion Pedal)


eb|-------------------------------------------------------------------------------------------------------|
Bb|-------------------------------------------------------------------------------------------------------|
Gb|------10-10-10-10---9-9-9---9-9--7-7-7---7-7--5-5-5-------14-14-14-14--12-12-12-12--9-9-9-9--10-10-10--|
Db|-------x--x--x--x---x-x-x---x-x--x-x-x---x-x--x-x-x-------x--x--x--x---x--x--x--x---x-x-x-x--x--x--x---|
Ab|-------8--8--8--8---7-7-7---7-7--5-5-5---5-5--3-3-3-------12-12-12-12--10-10-10-10--7-7-7-7--8--8--8---|
Db|--0----0--0--0--0---0-0-0---0-0--0-0-0---0-0--0-0-0---0---0--------------------------------------------|

eb|----------------------------------------------------------------|
Bb|----------------------------------------------------------------|
Gb|------10-10-10-10---9-9-9---9-9--7-7-7---7-7--5-5-5-(hold)--/7--|
Db|-------x--x--x--x---x-x-x---x-x--x-x-x---x-x--x-x-x-------------|
Ab|-------8--8--8--8---7-7-7---7-7--5-5-5---5-5--3-3-3--0-2--3-/5--|
Db|--0----0--0--0--0---0-0-0---0-0--0-0-0---0-0--0-0-0-------------|



This tab seems closer than any other I've seen.  V1 on here blatently misses out parts of the verse.
But hey, If Im wrong, correct me!

The strumming patterns could be wrong, I was lazy and copied and pasted =) and I might have
left out one or 2 Db's on the intro.

===============================================================================
Comments