Smile Empty Soul - Finding Myself Chords & Tabs

 

Finding Myself Chords & Tabs

Smile Empty Soul Chords & Tabs

Version: 3 Type: Tab 0 ratings
1 star 2 stars 3 stars 4 stars 5 stars
comments

Finding Myself Tab

   
Title: Finding Myself
Artist: Smile Empty Soul
Album: The Punisher Soundtrack

Instrument: Guitar

Tuning: Drop D one step down. ( C G C F A D)

 


D|--------------------------------------0------------------------------||
A|-------0---------0-------0-------------------------------------------||
F|---------0-----------------0-----------------------------------------||
C|----10---------7-------2-----------12--------------------------------||
G|--7----------5-------2----------10-----------------------------------||
C|7----------5-------2---------10--------------------------------------||


D|---------------------------------------------------------------------||
A|---------------------------------------------------------------------||
F|-----7---4---7-------------------------------------------------------||
C|10---5---2---5-------------------------------------------------------||
G|7----5---2---5-------------------------------------------------------||
C|7--------2-----------------------------------------------------------||
repeat
[ Tab from: http://www.guitartabs.cc/tabs/s/smile_empty_soul/finding_myself_tab_ver_3.html ]
D|---------------------------------------------------------------------||
A|---------------------------------------------------------------------||
F|-----7---4---7----------5---4---5------------------------------------||
C|10---5---2---5------10--5---2---3------------------------------------||
G|7----5---2---5------7---5---2---3------------------------------------||
C|7--------2----------7-------2---3------------------------------------||
repeat


D|-------------------------------------------------------------------||
A|-------0----------0-----------0------------1--0--------------------||
F|----------0----------0-----------0---------------------------------||
C|-------------------------------------------------------------------||
G|-0-0---------0-0---------0-0----------0-0--------------------------||
C|-------------------------------------------------------------------||



D|---------------------------------||
A|-----0---------------------------||
F|--------0------------------------||
C|---------------------------------||
G|0-0------------------------------||
C|---------------------------------||
repeat
Comments